Misc Unsigned Bands – Understatement - Hate tab

Band : Understatement
Song : Hate

Tabbed by: Eckz (ill_member)
E-mail: shatterd_glass@hotmail.com
Understatement is a new band from Napanee Ontario they rock hard but they dont
have a site yet, the members are Jason: Vocals, Corey: Guitar, Xavier:
Guitar/Vocals and Joe: Bass unfortunately they need to get a new drummer.
Tuning: Dropped D

Intro
-----------------------------
-----------------------------
-----------------------------
-----------------------------
-----------------------------
2-2-2-0-0-0-0---5-5-5-0-0-0-0

-----------------------------
-----------------------------
-----------------------------
-----------------------------
-----------------------------
2-2-2-0-0-0-0---9-9-9-8-8-8-8

Chorus-------------------------------------------------------------------------------------------------------------------- x310-10-10-10-10-9-9-9-9-9------9--9--9--9--9-8-8-8-8-8-----
--------------------------------------------------------------------------------------------------------------------10-10-10-10-10-10-10-10-10----9--9--9--9--9--9--9--9--9---
-------------------------------------------------------------------------------------------------------------------- x2-9-9-9-9-9-9-9-9-9-6-6-6----- -8-8-8-8-8-8-8-8-8-5-5-5-3/9
Verse------------------------------------------------------------------------------------------------------------------------------------ -------------------------------------------- x410-10-10-10-9-9-9-9-10-10-10-10-9-9-9-9------9--9--9--9-8-8-8-8--9--9--9--9-8-8-8-8-3-3/8
Order: Intro x1 Chorus x1 Verse x1 Chorus x1 Verse x1 Chorus x2 Intro x1 Verse x1 Chorus x4
Please rate this tab:
x1.0