Misc Unsigned Bands – Watch It Burn - Depths tab

-------------------------------------------------------------------------------
                             Depths - Watch It Burn
-------------------------------------------------------------------------------
 Tabbed by: theonelink
 E-mail: -

 Demonstration: 
 http://www.youtube.com/watch?v=mVoYMZPLzYM&list=UUdTv_hV72LVNaiixTZ6nyYA&index=3&feature=plcp


 Tuning: Drop C


Tapping (Repeats)|-----------------------------------------------||-t15p10t13p10----------------------------------||--------------t14/15p7t15p7t14p7t14/15p7t14p7--||-----------------------------------------------||-----------------------------------------------||-----------------------------------------------|
Every 4th time play this:|----------------------------------------------------||-t15p10t13p10----------t17p10t18p10t17p10t17/18p10--||--------------t14/15p7------------------------------||----------------------------------------------------||----------------------------------------------------||----------------------------------------------------|
(0:49 - 0:51)|----------------------------------||----------------------------------||----------------------------------||--------7-8-7------8-7-5-------5--||--8-5-8-------8-5--------8-5-8----||----------------------------------|
(0:52 - 1:10) Repeat 2x|--------------------------------------------------------------||--------------------------------------------------------------||--------------------------------------------------------------||--------------------------------------------------------------||-5----7---8---5----7---8---5---5----7---8---5----7---8---5----||---00---0---0---00---0---0---0---00---0---0---00---0---0---0--| .. . . .. . . . .. . . .. . . .
|--------------------------------------------------------------------||--------------------------------------------------------------------||--------------------------------------------------------------------||----------------------------------------------5---7----7---7h8p7p5--||-----12----12---10----10---10---10-------8--------------------------||--88----88----8----88----8----8----8--55---55---5---55---5----------| .. .. . .. . . . .. .. . .. .
(1:11 - 1:19)|---------------------------------------||---------------------------------------||---------------------------------------||---------------------------------------||---------------------------------------||-0-0-12-0-0-12-0-0-12-0-0-12-0-0-10-10-|
|-----------------------------------||-----------------------------------||-----------------------------------||-----------------------------------||-----------------------------------||-0-0-12-0-0-12-0-0-8-8-8-8-8-7-7-7-|
|---------------------------------------||---------------------------------------||---------------------------------------||---------------------------------------||---------------------------------------||-0-0-12-0-0-12-0-0-12-0-0-12-0-0-10-10-|
|-----------------------------------||-----------------------------------||-----------------------------------||-----------------------------------||-----------------------------------||-0-0-12-0-0-12-0-0-8-8-8-8-8-3-3-3-|
Chorus - Octaves, alternate strumming (slide up/down to each octave)|-------------------------|-------------------------||-------------------------|-------------------------||--14---12---17---10---9--|--14---12---10---12---9--||--x----x----x----x----x--|--x----x----x----x----x--||--12---10---15---8----7--|--12---10---8----10---7--||-------------------------|-------------------------|
(1:40 - 1:59) 2x|-------------------------------------------------------------------------||-----10---8h10----10---8h10-------------10---8h10----10---8h10----11p10--||--77----7------77----7------77-10p9--77----7------77----7------77--------||-------------------------------------------------------------------------||-------------------------------------------------------------------------||-------------------------------------------------------------------------| .. . .. . .. .. . .. . ..
|-------------------------------------------------------------------||-----10---8h10----10---8h10-------------5---5h6----8---6h8---------||--77----7------77----7------77-10p9--00---0-----55---5-----55-5h7--||-------------------------------------------------------------------||-------------------------------------------------------------------||-------------------------------------------------------------------| .. . .. . .. .. . .. . ..
(1:59 - 2:08)|---------------------------------------||---------------------------------------||---------------------------------------||---------------------------------------||---------------------------------------||-0-0-12-0-0-12-0-0-12-0-0-12-0-0-10-10-|
|-----------------------------------||-----------------------------------||-----------------------------------||-----------------------------------||-----------------------------------||-0-0-12-0-0-12-0-0-8-8-8-8-8-7-7-7-|
|---------------------------------------||---------------------------------------||---------------------------------------||---------------------------------------||---------------------------------------||-0-0-12-0-0-12-0-0-12-0-0-12-0-0-10-10-|
|-----------------------------------||-----------------------------------||-----------------------------------||-----------------------------------||-----------------------------------||-0-0-12-0-0-12-0-0-8-8-8-8-8-3-3-3-|
- Repeat Chorus
Bridge (Delay/Reverb)|-----------------------------------------------------------||-----------------------------------------------------------||-12b14---12-10-12--10h12-10----10--------------------------||----------------------------12----12-10h12p10----10h12p10--||----------------------------------------------12-----------||-----------------------------------------------------------| . . . . .
|--------------------------------------------------------------------||-------------------------------------------------10h13p10-----------||-------------------------------------10h12-10-------------12h14p12--||-7h10p7--5h7p5b----------------10-12----------12--------------------||------------------8h10p8--------------------------------------------||--------------------------------------------------------------------| . . .
|---------------------------------------------------------||-------15------------------------------------------------||-12h14----14\12-10h12------------------------------------||----------------------12-----10h12----10-----------------||-----------------------------------12----12-10-10h12p10--||---------------------------------------------------------| . . . . .
|-----------------------------------||-----------------------------------||-----------------------------------||-------------7h10p7---5h7p5--------||--8h10p8---------------------------||-----------------------------------|
(3:08 - 3:16)|-----------------------------------------------||-----------------------------------------------||-----------------------------------------------||-----------------------------------------------||-00000----00000-00000---00000-----00000-00000--||-00000----00000-00000---00000-----00000-00000--| ..... ..... ..... ..... ..... .....
Tapping Outro x3|-----------------------------------------------||-t15p10t13p10----------------------------------||--------------t14/15p7t15p7t14p7t14/15p7t14p7--||-----------------------------------------------||-----------------------------------------------||-----------------------------------------------|
Finish with:|--------------------------------------------------------||-t15p10t13p10----------t17p10t18p10t17p10t17/18p10t15v--||--------------t14/15p7----------------------------------||--------------------------------------------------------||--------------------------------------------------------||--------------------------------------------------------|
************************************ | / slide up | \ slide down | h hammer-on | p pull-off | ~ vibrato | + harmonic | x Mute note | b Bend | pb Pre-bend | br Bend release | pbr Pre-bend release | brb Bend release bend ************************************
Please rate this tab:
x1.0