Misc Unsigned Bands – Civil Civic - Less Unless tab

Band: Civil Civic
Song: Less Unless
Album: Rules (2011)


Tabbed by Samoth

--------------------------------------------------------------
Please rate and feel free to comment and complete if needed...
Thanks!
--------------------------------------------------------------




Standard Tuning




RIFF 1
------

|-----------|----------|----------|----------|------------|-------||---8-------|---7------|---5----5-|-----5--4-|---7------7-|-7h8-7-||-9----9/11-|-7----7h9-|-5----7---|----------|------7-9---|-------||-----------|----------|----------|-4h6------|-7----------|-------| X2|-----------|----------|----------|----------|------------|-------||-----------|----------|----------|----------|------------|-------|
|-----------------------||------8--8--8--8--8-x8-||-7p0--9--9--9--9--9-x9-||-----------------------||-----------------------||-----------------------|
RIFF 2 & RIFF 2 bis ------------------- Just one part (noticed below) makes the difference between Riff 2 and Riff 2 bis. |Synth. arranged for guitar |
|--------------||--------------||-12--11--7--9-||--x---x--x--x-||-10---9--5--7-||--------------|
|Guitar |
|---|---------|---------7h8p7--------------------||-8-|---------|------10-------8-10p8-7---10p8-7b-||-9-|-------9-|-9-12-------------------7---------||---|-10-12---|----------------------------------||---|---------|----------------------------------||---|---------|----------------------------------|
|Synth. arranged for guitar |
|--------------||--------------||-12--11--7--9-||--x---x--x--x-||-10---9--5--7-||--------------|
|Guitar |Guitar (only for Riff 2 bis) | ||---|---------|-----------| |---|-------------|------------|---||-8-|---------|-8-8-x8-x8-| |-8-|-------------|------------|-8-||-9-|-------9-|-9-9-x9-x9-| or |-9-|-------9br-9-|-9-12-9br-9-|-9-||---|-10-12---|-----------| |---|-10-12-------|------------|---||---|---------|-----------| |---|-------------|------------|---||---|---------|-----------| |---|-------------|------------|---|
|Synth. arranged for guitar |
|--------------||--------------||-12--11--7--9-||--x---x--x--x-||-10---9--5--7-||--------------|
|Guitar |
|---|---------|---------7h8p7--------------------||-8-|---------|------10-------8-10p8-7---10p8-7b-||-9-|-------9-|-9-12-------------------7---------||---|-10-12---|----------------------------------||---|---------|----------------------------------||---|---------|----------------------------------|
|Synth. arranged for guitar |
|-----------------||-----------------||-12--11--7--6--4-||--x---x--x--x--x-||-10---9--5--4--2-||-----------------|
RIFF 3 ------ |Part a |
|-----------------------------------------------------------------||-----------------------------------------------------------------||-7--7-7-6--6-6-2--2-2-4--4-4-4-4-4-4-4-4-4-4-4-4-4-4-4-4-4-4-4-4-||-x--x-x-x--x-x-x--x-x-x--x-x-x-x-x-x-x-x-x-x-x-x-x-x-x-x-x-x-x-x-||-5--5-5-4--4-4-2--2-2-2--2-2-2-2-2-2-2-2-2-2-2-2-2-2-2-2-2-2-2-2-||-----------------------------------------------------------------|
|Part b |
|-----------------------------------------------------------------||-----------------------------------------------------------------||-7--7-7-6--6-6-2--2-2-6--6-6-6-6-6-6-6-6-6-6-6-6-6-6-6-6-6-6-6-6-||-x--x-x-x--x-x-x--x-x-x--x-x-x-x-x-x-x-x-x-x-x-x-x-x-x-x-x-x-x-x-||-5--5-5-4--4-4-2--2-2-4--4-4-4-4-4-4-4-4-4-4-4-4-4-4-4-4-4-4-4-4-||-----------------------------------------------------------------|
|Part c |
|---------------------------||---------------------------||-7--7-7-9--9-9-11--11-11-2-||-x--x-x-x--x-x--x---x--x-x-||-5--5-5-7--7-7--9---9--9-2-||---------------------------|
BREAK ----- |Synth. arranged for guitar |
|-----------------------------------------------||-----------------------------------------------||-16--14--12--14--11--9--13--11--14--16--12--14-||--x---x---x---x---x--x---x---x---x---x---x---x-||-14--12--10--12---9--7--11---9--12--14--10--12-||-----------------------------------------------|
OUTRO ----- |Synth. arranged for guitar |
|-----------------------------------------------||-----------------------------------------------||-16--14--12--14--11--9--13--11--14--16--12--14-||--x---x---x---x---x--x---x---x---x---x---x---x-||-14--12--10--12---9--7--11---9--12--14--10--12-||-----------------------------------------------|
|Synth. arranged for guitar |
|-----------------------------------||-----------------------------------||-16--14--12--14--11--9--13--11--14-||--x---x---x---x---x--x---x---x---x-||-14--12--10--12---9--7--11---9--12-||-----------------------------------|
| |Guitar |
|-----------|----------|----------|----------|-------------||---8-------|---7------|---5----5-|-----5--4-|---7------7:-||-9----9/11-|-7----7h9-|-5----7---|----------|------7-9----||-----------|----------|----------|-4h6------|-7-----------||-----------|----------|----------|----------|-------------||-----------|----------|----------|----------|-------------|
Song structure -------------- Riff 1 Riff 2 Riff 3 (Part a, Part b, Part a x6, Part c) Break x2 (Synth.) Break x2 (Synth.) + Riff 1 (Guitar) Riff 2 bis Riff 3 (Part a, Part b, Part a x11, Part c) Outro
Please rate this tab:
x1.0