Misc Unsigned Bands – Fallen Traitors - My Own Inner Warfare tab

Artist: Fallen Traitors
Album: Empty
Song: My Own Inner Warfare
Year: 2012

Intro:

Guitar 2----------|----------|----------|---3------|---3------|---3------|
----------|----------|----------|---0------|---0------|---0------|
Verse:Guitar 1----------------- | |----------------- | |-------0h2------- | |---0h3-----3h0--- | |----------------- | |----------------- |X3 |
|
--------------------- |--------------------- |--------------------- |---0-3---3---5---5--- |---0-3---3---5---5--- |---0-3---3---5---5--- |X4
Guitar 2----------------- | |----------------- | |----------------- | |-----------1-0--- | |---0-0-0-0-1-0--- | |---0-0-0-0-1-0--- |X3 |
. . . . |--------------------- |--------------------- |--------------------- |---0-3---3---5---5--- |---0-3---3---5---5--- |---0-3---3---5---5--- |X4
Chorus:Guitar 1-----------------------------------|-----------------------------------|---7---7-7-7-7-7---7-7-7-7-7-7-7---|-----------------------------------|---5---5-5-5-5-5---5-5-5-5-5-5-5---|-----------------------------------|
-----------------------------------|-----------------------------------|---10--101010X-9---9-9-9-9-9-9-9---|-----------------------------------|---8---8-8-8-X-7---7-7-7-7-7-7-7---|-----------------------------------|
-----------------------------------|-----------------------------------|---5---5-5-5-5-5---5-5-5-5-5-5-5---|-----------------------------------|---3---3-3-3-3-3---3-3-3-3-3-3-3---|-----------------------------------|
-----------------------------------|-----------------------------------|---10--101010X-9---9-9-9-9-9-9-9---|-----------------------------------|---8---8-8-8-X-7---7-7-7-7-7-7-7---|-----------------------------------|
Guitar 2-----------------------------------|-----------------------------------|---10--1010101010--10101010101010--|-----------------------------------|---8---8-8-8-8-8---8-8-8-8-8-8-8---|-----------------------------------|
-----------------------------------|-----------------------------------|---14--141414X-12--12121212121212--|-----------------------------------|---12--121212X-10--10101010101010--|-----------------------------------|
-----------------------------------|-----------------------------------|---9---9-9-9-9-9---9-9-9-9-9-9-9---|-----------------------------------|---7---7-7-7-7-7---7-7-7-7-7-7-7---|-----------------------------------|
-----------------------------------|-----------------------------------|---14--141414X-12--12121212121212--|-----------------------------------|---12--121212X-10--10101010101010--|-----------------------------------|
Break 1:Guitar 1----------------- |----------------- |----------------- |-----------1-0--- |---0-3-5-0-1-0--- |---0-3-5-0-1-0--- |X3
. . . .---------------|---------------|-----------11--|---0--0--0-----|---0--0--0-9---|---0--0--0-----|
Guitar 2----------------- |----------------- |----------------- |-----------1-0--- |---0-3-5-0-1-0--- |---0-3-5-0-1-0--- |X3
. . . .---------------|---------------|-----------7---|---0--0--0-----|---0--0--0-5---|---0--0--0-----| . . .
Break 2:------------D--------|-------J-----E-------|--------U-----C------|---0-----S-----I-----|---0------T-----D----|---0-------------E---|
Breakdown (Part I):-------------------------------------|-------------------------------------|-------------------------------------|-------------------------------------|---00000000000-0-0-000-0-0-000-0-0---|---00000000000-0-0-000-0-0-000-0-0---|
........... . . ... . . ... .-------------------------------------|-------------------------------------|-------------------------------------|-------------------------------------|---00000000000-0-0-000-0-0-000-------|---00000000000-0-0-000-0-0-000-3*----|
........... . . ... . . ...-------------------------------------|-------------------------------------|-------------------------------------|-------------------------------------|---00000000000-0-0-000-0-0-000-0-0---|---00000000000-0-0-000-0-0-000-0-0---|
........... . . ... . . ... . .-------------------------------------|-------------------------------------|-------------------------------------|-------------------------------------|---00000000000-0-0-000-0-0-000-0-0---|---00000000000-0-0-000-0-0-000-0-0---| ........... . . ... . . ... . .
Breakdown (Part II):Guitar 1----------------------------------------------------|----------------------------------------------------|----------------------------------------------------|---15-14-12-15-14-12-15-14-12-15-14-12-15-14-12-14--|----------------------------------------------------|----------------------------------------------------|
----------------------------------------------------|----------------------------------------------------|----------------------------------------------------|---15-14----15-14----15-14----15-14----15-14----14--|---------15-------15-------15-------15-------15-----|----------------------------------------------------|
----------------------------------------------------|----------------------------------------------------|----------------------------------------------------|---17-15----17-15----17-15----17-15----17-15----17--|---------13-------13-------13-------13-------13-----|----------------------------------------------------|
----------------------------------------------------|----------------------------------------------------|----------------------------------------------------|---15-14----15-14----15-14----15-14----15-14----14--|---------12-------12-------12-------12-------12-----|----------------------------------------------------|
Guitar 2-------------------------------------|-------------------------------------|-------------------------------------|-------------------------------------|---00000000000-0-0-000-0-0-000-0-0---|---00000000000-0-0-000-0-0-000-0-0---|
........... . . ... . . ... .-------------------------------------|-------------------------------------|-------------------------------------|-------------------------------------|---00000000000-0-0-000-0-0-000-------|---00000000000-0-0-000-0-0-000-3*----|
........... . . ... . . ...-------------------------------------|-------------------------------------|-------------------------------------|-------------------------------------|---00000000000-0-0-000-0-0-000-0-0---|---00000000000-0-0-000-0-0-000-0-0---|
........... . . ... . . ... . .-----------------------------------------------|-----------------------------------------------|-----------------------------------------------|-----------------------------------------------|---00000000000-0-0-7h8p7p0h7p0h5h8p5p0h5p0h5*--|---00000000000-0-0-----------------------------| ........... . .
Breakdown (Part III):Guitar 1----------------------------------------------------|----------------------------------------------------|----------------------------------------------------|---15-14-12-15-14-12-15-14-12-15-14-12-15-14-12-14--|----------------------------------------------------|----------------------------------------------------|
----------------------------------------------------|----------------------------------------------------|----------------------------------------------------|---15-14----15-14----15-14----15-14----15-14----14--|---------15-------15-------15-------15-------15-----|----------------------------------------------------|
----------------------------------------------------|----------------------------------------------------|----------------------------------------------------|---17-15----17-15----17-15----17-15----17-15----17--|---------13-------13-------13-------13-------13-----|----------------------------------------------------|
----------------------------------------------------|----------------------------------------------------|----------------------------------------------------|---15-14----15-14----15-14----15-14----15-14----14--|---------12-------12-------12-------12-------12-----|----------------------------------------------------|
Guitar 2----------------------------------------------------|----------------------------------------------------|----------------------------------------------------|---19-17-15-19-17-15-19-17-15-19-17-15-19-17-15-17--|----------------------------------------------------|----------------------------------------------------|
----------------------------------------------------|----------------------------------------------------|----------------------------------------------------|---19-17-14-19-17-14-19-17-14-19-17-14-19-17-14-17--|----------------------------------------------------|----------------------------------------------------|
----------------------------------------------------|----------------------------------------------------|----------------------------------------------------|---20-19----20-19----20-19----20-19----20-19----19--|---------17-------17-------17-------17-------17-----|----------------------------------------------------|
----------------------------------------------------|----------------------------------------------------|----------------------------------------------------|---19-17----19-17----19-17----19-17----19-17----17--|---------15-------15-------15-------15-------15-----|----------------------------------------------------|
Breakdown (Part IV):Guitar 2--------------------------------------|---15----15----15----15----15---------|-----17----17----17----17----17--17---|-------19----19----19----19----19-----|--------------------------------------|--------------------------------------|
--------------------------------------|---17----17----18----18----18---------|-----17----17----17----17----17--17\--|-------19----19----19----19----19-----|--------------------------------------|--------------------------------------|
--------------------------------------|---11----11----11----11----11---------|-----12----12----12----12----12--12---|-------15----15----15----15----15-----|--------------------------------------|--------------------------------------|
--------------------------------------|---11----11----11----13----13---------|-----12----12----12----12----12--12---|-------15----15----15----15----15-----|--------------------------------------|--------------------------------------|
Solo 1 (Darius):Guitar 1-------------------------------------|-------------------------------------|-------------------------------------|-------------------------------------|---00000000000-0-0-000-0-0-000-222---|---00000000000-0-0-000-0-0-000-222---|
........... . . ... . . ... ...-------------------------------------|-------------------------------------|-------------------------------------|-------------------------------------|---33333333333-3-3-333-3-3-333-333---|---33333333333-3-3-333-3-3-333-333---|
........... . . ... . . ... ...-------------------------------------|-------------------------------------|-------------------------------------|-------------------------------------|---88888888888-8-8-888-8-888-8-88----|---88888888888-8-8-888-8-888-8-88----|
........... . . .. .. ..-------------------------------------|-------------------------------------|-------------------------------------|-------------------------------------|---55555555555-5-5-555-5-5-555-5-5---|---55555555555-5-5-555-5-5-555-5-5---| ........... . . ... . . ... . .
Guitar 2---------------------(17)---18---|---(15)---(17)(18)---------------|---------------------------------|---------------------------------|---------------------------------|---------------------------------|
---13-17-13----13-----------------------|------------17~~~~17-13-17-13----13-----|------------------------------15~~~~15--|----------------------------------------|----------------------------------------|----------------------------------------|
--------------------------------------------|--------------------------------------------|---14-15-14-12-14-12-10-12-10-9-10-9--------|-------------------------------------10/12--|--------------------------------------------|--------------------------------------------|
------------10~~~\---|-----------10~~~~\---|----------10~~~~~\---|---12-12-12~~~~~~\---|---------------------|---------------------| . .
Solo 2 (Zack):Guitar 1Guitar 2-------------------------------------|-------------------------------------|-------------------------------------|-------------------------------------|---00000000000-0-0-000-0-0-000-222---|---00000000000-0-0-000-0-0-000-222---|
........... . . ... . . ... ...-------------------------------------|-------------------------------------|-------------------------------------|-------------------------------------|---33333333333-3-3-333-3-3-333-333---|---33333333333-3-3-333-3-3-333-333---|
........... . . ... . . ... ...-------------------------------------|-------------------------------------|-------------------------------------|-------------------------------------|---88888888888-8-8-888-8-888-8-88----|---88888888888-8-8-888-8-888-8-88----|
........... . . .. .. ..-------------------------------------|-------------------------------------|-------------------------------------|-------------------------------------|---55555555555-5-5-555-5-5-555-5-5---|---55555555555-5-5-555-5-5-555-5-5---|
........... . . ... . . ... . .--------------------------------------------|--------------------------------------------|--------------------------------------------|---0----------------------------------------|---0------0-0-0-0-0-0-0-0-0-0-0-0-0-0-0-0---|---0------0-0-0-0-0-0-0-0-0-0-0-0-0-0-0-0---| . . . . . . . . . . . . . . . .
(, ) Tremolo Picking (pick quickly) /, \ Slide h, p Hammer on, Pull off . Palm Mute * Pinch Harmonic
Please rate this tab:
x1.0