Misc Unsigned Bands - Fallen Traitors - Kelly tab

Artist: Fallen Traitors
Album: Empty
Song: Kelly
Year: 2012

Intro:Guitar 1------------------------------------------------- |------------------------------------------------- |------------------------------------------------- |---0-0--0--0---0-0--0--0---0-0--0--0---/4--3--1-- |---0-0--0--0---0-0--0--0---0-0--0--0---/4--3--1-- |---0-0--0--0---0-0--0--0---0-0--0--0---/4--3--1-- |
. . . . . . . . . . . . |------------------------------------------------- |------------------------------------------------- |------------------------------------------------- |---0-0--0--0---0-0--0--0---0-0--0--0------------- |---0-0--0--0---0-0--0--0---0-0--0--0------------- |---0-0--0--0---0-0--0--0---0-0--0--0---/4---3*--- |X4 . . . . . . . . . . . .
Guitar 2------------------------------------------------- |------------------------------------------------- |------------------------------------------------- |---0-0--0--0---0-0--0--0---0-0--0--0---/4--3--1-- |---0-0--0--0---0-0--0--0---0-0--0--0---/4--3--1-- |---0-0--0--0---0-0--0--0---0-0--0--0---/4--3--1-- |
. . . . . . . . . . . . |------------------------------------------------- |------------------------------------------------- |------------------------------------------------- |---0-0--0--0---0-0--0--0---0-0--0--0------------- |---0-0--0--0---0-0--0--0---0-0--0--0------------- |---0-0--0--0---0-0--0--0---0-0--0--0---/4---3*--- |
. . . . . . . . . . . . |------------------------------------------------- |------------------------------------------------- |------------------------------------------------- |---0-0--0--0---0-0--0--0---0-0--0--0---/4--3--1-- |---0-0--0--0---0-0--0--0---0-0--0--0---/4--3--1-- |---0-0--0--0---0-0--0--0---0-0--0--0---/4--3--1-- |
. . . . . . . . . . . . |------------------------------------------------- |------------------------------------------------- |------------------------------------------------- |---0-0--0--0---0-0--0--0---0-0--0--0------------- |---0-0--0--0---0-0--0--0---0-0--0--0------------- |---0-0--0--0---0-0--0--0---0-0--0--0---/7---6*--- |X2 . . . . . . . . . . . .
Pre-Verse Break:Guitar 1----------|----------|----------|----------|----------|---3*-2*--|
Guitar 2----------|----------|----------|----------|----------|---6*-5*--|
Verse:Guitar 1----------------------------------- |----------------------------------- |----------------------------------- |----------------------------------- |-------8---5---4---5---4---1---0--- |---0-0---0---0---0---0---0---0----- |
|
----------------------------------- |----------------------------------- |----------------------------------- |-------------------------------6h9- |-------8---5---4---5---4---5h8----- |---0-0---0---0---0---0---0--------- |
|
----------------------------------- |----------------------------------- |----------------------------------- |----------------------------------- |-------8---5---4---5---4---1---0--- |---0-0---0---0---0---0---0---0----- |
|
------------------------------------ |------------------------------------ |------------------------------------ |-----------------------6h9-----7h10- |-------8---5---4---5h8-----6h9------ |---0-0---0---0---0------------------ |
Guitar 2 ----------------------------------- |----------------------------------- |----------------------------------- |----------------------------------- |-------12--8---7---8---7---5---4--- |---0-0---0---0---0---0---0---0----- |
|
------------------------------------ |------------------------------------ |------------------------------------ |-------------------------------9h12- |-------12--8---7---8---7---8h11----- |---0-0---0---0---0---0---0---------- |
|
----------------------------------- |----------------------------------- |----------------------------------- |----------------------------------- |-------12--8---7---8---7---5---4--- |---0-0---0---0---0---0---0---0----- |
|
------------------------------------- |------------------------------------- |------------------------------------- |-----------------------9h12----10h13- |-------12--8---7---8h11----9h12------ |---0-0---0---0---0------------------- |X2
Chorus:------------------------------------- |------------------------------------- |------------------------------------- |------------------------------------- |---4-4-4-4-4-4-4-4-4-4-4-4-4-4-4-4--- |---0-0-0-0-0-0-0-0-0-0-0-0-0-0-0-0--- |
|
------------------------------------- |------------------------------------- |------------------------------------- |-------------------3-3-3-3-3-3-3-3--- |---1-1-1-1-1-1-1-1-3-3-3-3-3-3-3-3--- |---0-0-0-0-0-0-0-0-3-3-3-3-3-3-3-3--- |X2
Outro:Guitar 1------------------------------------------------- |------------------------------------------------- |------------------------------------------------- |---0-0--0--0---0-0--0--0---0-0--0--0---/4--3--1-- |---0-0--0--0---0-0--0--0---0-0--0--0---/4--3--1-- |---0-0--0--0---0-0--0--0---0-0--0--0---/4--3--1-- |
. . . . . . . . . . . . |------------------------------------------------- |------------------------------------------------- |------------------------------------------------- |---0-0--0--0---0-0--0--0---0-0--0--0------------- |---0-0--0--0---0-0--0--0---0-0--0--0------------- |---0-0--0--0---0-0--0--0---0-0--0--0---/4---3*--- |X4 . . . . . . . . . . . .
Guitar 2------------------------------------------------- |------------------------------------------------- |------------------------------------------------- |---0-0--0--0---0-0--0--0---0-0--0--0---/4--3--1-- |---0-0--0--0---0-0--0--0---0-0--0--0---/4--3--1-- |---0-0--0--0---0-0--0--0---0-0--0--0---/4--3--1-- |
. . . . . . . . . . . . |------------------------------------------------- |------------------------------------------------- |------------------------------------------------- |---0-0--0--0---0-0--0--0---0-0--0--0------------- |---0-0--0--0---0-0--0--0---0-0--0--0------------- |---0-0--0--0---0-0--0--0---0-0--0--0---/4---3*--- |
. . . . . . . . . . . . |------------------------------------------------- |------------------------------------------------- |------------------------------------------------- |---0-0--0--0---0-0--0--0---0-0--0--0---/4--3--1-- |---0-0--0--0---0-0--0--0---0-0--0--0---/4--3--1-- |---0-0--0--0---0-0--0--0---0-0--0--0---/4--3--1-- |
. . . . . . . . . . . . |------------------------------------------------- |------------------------------------------------- |------------------------------------------------- |---0-0--0--0---0-0--0--0---0-0--0--0------------- |---0-0--0--0---0-0--0--0---0-0--0--0------------- |---0-0--0--0---0-0--0--0---0-0--0--0---/7---6*--- |X2 . . . . . . . . . . . .
Tap to rate this tab
 
# A B C D E F G H I J K L M N O P Q R S T U V W X Y Z