Misc Unsigned Bands – Shadow Of A Doubt - Bloody Mary tab

|---------------------------------||---------------------------------||---------------------------------||----------10---------------------||----7-8-------87---78--7---------||-00--------------0----0----------|
x2|---------------------------------||---------------------------------||---------------------------------||----------10---------------------||----7-8-------87---78--10--------||-00--------------0----0----------|
|---------------------------------||---------------------------------||---------------------------------||----------10---------------------||----7-8-------87---78----7-------||-00--------------0----0----------|
x2|---------------------------------||---------------------------------||---------------------------------||----------10-------------7-------||----7-8-------87---78------------||-00--------------0----0----------|
|---------------------------------||---------------------------------||---------------------------------||0-------0---------0--------0-----||0-------0---------0--------0-----||0-------0---------0--------0-----|
|---------------------------------||---------------------------------||-----5(DiveBomb)-----------------||---------------------------------||---------------------------------||---------------------------------|
|---------------------------------||----------------------------5----||----------------------------8----|x6|---------------------------------||0000000-00-000-000000-00---------||0000000-00-000-000000-00---------|
|---------------------------------||---------------------------------||---------------------------------||----------10---------------------||----7-8-------87---78--7---------||-00--------------0----0----------|
x2|---------------------------------||---------------------------------||---------------------------------||----------10---------------------||----7-8-------87---78--10--------||-00--------------0----0----------|
|---------------------------------||---------------------------------||---------------------------------||----------10---------------------||----7-8-------87---78----7-------||-00--------------0----0----------|
x2|---------------------------------||---------------------------------||---------------------------------||----------10-------------7-------||----7-8-------87---78------------||-00--------------0----0----------|
|---------------------------------||---------------------------------||---------------------------------||0-------0---------0--------0-----||0-------0---------0--------0-----||0-------0---------0--------0-----|
|---------------------------------||---------------------------------||-----5(DiveBomb)-----------------||---------------------------------||---------------------------------||---------------------------------|
|---------------------------------||---------------------------------||---------------------------------|x6|---------------------------------||0000000-00-000-000000-00-----1---||0000000-00-000-000000-00-----1---|
|---------------------------------||---------------------------------||---------------------------------||---------------------------------||---------------------------------||--------<<<<<
|---------------------------------||---------------------------------||---------------------------------||-------10-------10---------------||---------9-0------9-0------------||---00--------00-------0000000----|
x2|---------------------------------||---------------------------------||---------------------------------||-------10-------10---------------||---------9-0------9-0---5*(Pinch)||---00--------00-------00---------|
|---------------------------------||---------------------------------||---------------------------------||---------------------------------||---------------------------------||333333333333333333333333---------|
|---------------------------------||---------------------------------||---------------------------------||---------------------------------||---------------------------------||222222222222222222222222---------|
|---------------------------------||---------------------------------||---------------------------------||----------10---------------------||----7-8-------87---78--7---------||-00--------------0----0----------|
x2|---------------------------------||---------------------------------||---------------------------------||----------10---------------------||----7-8-------87---78--10--------||-00--------------0----0----------|
|---------------------------------||---------------------------------||---------------------------------||----------10---------------------||----7-8-------87---78----7-------||-00--------------0----0----------|
x2|---------------------------------||---------------------------------||---------------------------------||----------10-------------7-------||----7-8-------87---78------------||-00--------------0----0----------|
|---------------------------------||---------------------------------||---------------------------------||---------------------------------||----------90705070---------------||00000000-----------00000000------|x3
|---------------------------------||---------------------------------||---------------------------------||---------------------------------||----------90705070---------------||00000000-----------0(WhammyDown)-|x3
Please rate this tab:
x1.0