Misc Unsigned Bands - Scars On Society - Scars On Society tab

Tabbed by Kevin Konopi
 List:
1. Punks United
2. Stones in a Glass Apartment
3. 4 the Kids
4. Invisible
5. Unamed (actual name)


1.Punks United

|----------------------------------||----------------------------------||----------------------------------||---------5-5-5-5------------------| x8|-7-7-7-7-3-3-3-3-5-5-5-5-8-8-8-8--||-5-5-5-5---------3-3-3-3-6-6-6-6--|
|----------------------------------||----------------------------------||----------------------------------||---------9-9-9-9-5-5-5-5----------| x4|-7-7-7-7-7-7-7-7-3-3-3-3-7-7-7-7--||-5-5-5-5-----------------5-5-5-5--|
|----------------------------------||----------------------------------||----------------------------------||---------5-5-5-5------------------| x4|-7-7-7-7-3-3-3-3-5-5-5-5-8-8-8-8--||-5-5-5-5---------3-3-3-3-6-6-6-6--|
|----------------------------------||----------------------------------||----------------------------------||---------9-9-9-9-5-5-5-5----------| x4|-7-7-7-7-7-7-7-7-3-3-3-3-7-7-7-7--||-5-5-5-5-----------------5-5-5-5--|
|----------------------------------||----------------------------------||----------------------------------||---------5-5-5-5------------------| x4|-7-7-7-7-3-3-3-3-5-5-5-5-8-8-8-8--||-5-5-5-5---------3-3-3-3-6-6-6-6--|
|----------------------------------||----------------------------------||----------------------------------||---------9-9-9-9-5-5-5-5----------| x4|-7-7-7-7-7-7-7-7-3-3-3-3-7-7-7-7--||-5-5-5-5-----------------5-5-5-5--|
|----------------------------------||----------------------------------||----------------------------------||---------5-5-5-5------------------| x4|-7-7-7-7-3-3-3-3-5-5-5-5-8-8-8-8--||-5-5-5-5---------3-3-3-3-6-6-6-6--|
|----------------------------------||----------------------------------||----------------------------------||---------9-9-9-9-5-5-5-5----------| x4|-7-7-7-7-7-7-7-7-3-3-3-3-7-7-7-7--||-5-5-5-5-----------------5-5-5-5--|
|----------------------------------||----------------------------------||----------------------------------||---------5-5-5-5------------------| x4|-7-7-7-7-3-3-3-3-5-5-5-5-8-8-8-8--||-5-5-5-5---------3-3-3-3-6-6-6-6--|
2. Stones in a Glass Apartment
|---------------------------------||---------------------------------||---------------------------------||---------9-9-9-9-5-5-5-5-8-8-8-8-| x8|-7-7-7-7-7-7-7-7-3-3-3-3-6-6-6-6-||-5-5-5-5-------------------------|
Break with cow bell.
|---------------------------------||---------------------------------||---------------------------------||---------9-9-9-9-5-5-5-5-8-8-8-8-| x12|-7-7-7-7-7-7-7-7-3-3-3-3-6-6-6-6-||-5-5-5-5-------------------------|
3. 4 the Kids
|-------------------------------||-------------------------------||-------------------------------||-7-7-7-7---------5-5-5-5-------| x20|-5-5-5-5-7-7-7-7-3-3-3-3-5-3-5-||---------5-5-5-5---------3-1-3-|
Brief Solo:
|-10-10-10-10-------------8-8-8-8------||-------------10-10-10-10---------8-6-8||--------------------------------------||--------------------------------------| x4|--------------------------------------||--------------------------------------|
4. Invisible
|-----------||-----------||-----------||-----------| x8|-7-6-5-4-3-||-5-4-3-2-1-|
|---||---||---||-2-| x24|-2-||-0-|
|--------------------------------------------------------------||--------------------------------------------------------------||--------------------------------------------------------------||---------5-5-5-7-7-7-7-7-7-7-7--------------------------------| x5|-5-5-5-5-3-3-3-5-5-5-5-5-5-5-5--3-3-3-3-6-6-6-5-5-5-5-5-5-5-5-||-3-3-3-3------------------------1-1-1-1-4-4-4-3-3-3-3-3-3-3-3-|
|-------------------------||-------------------------||-------------------------||-3-3-3-3-5-5-5-5---------| x4|-1-1-1-1-3-3-3-3-7-6-5-4-||-----------------5-4-3-2-|
|---||---||---||-2-| x24|-2-||-0-|
|--------------------------------------------------------------||--------------------------------------------------------------||--------------------------------------------------------------||---------5-5-5-7-7-7-7-7-7-7-7--------------------------------| x5|-5-5-5-5-3-3-3-5-5-5-5-5-5-5-5--3-3-3-3-6-6-6-5-5-5-5-5-5-5-5-||-3-3-3-3------------------------1-1-1-1-4-4-4-3-3-3-3-3-3-3-3-|
|-------------------------||-------------------------||-------------------------||-3-3-3-3-5-5-5-5---------| x4|-1-1-1-1-3-3-3-3-7-6-5-4-||-----------------5-4-3-2-|
|-----------||-----------||-----------||-----------| x2|-7-6-5-4-3-||-5-4-3-2-1-|
5.Unamed
|-------------------------------||-------------------------------||-------------------------------||-------------------------------| x4|-5-2-5-5-2-5-5-2-5-5-4-3-------||-------------------------5-4-3-|
|----------------------------------------------------------||----------------------------------------------------------||----------------------------------------------------------||---------5-5-5-5-7-7-7-7------------------5-5-5-5-7-7-7-7-| x4|-7-7-7-7-3-3-3-3-5-5-5-5-7-7-5-5--7-7-7-7-3-3-3-3-5-5-5-5-||-5-5-5-5-----------------5-5-3-3--5-5-5-5-----------------|
Solo:
|-5-5-5-8-8-8-8-10-8-10-10^^10-8-5--5-5-5-8-5-8-10^-10-||------------------------------------------------------||------------------------------------------------------||------------------------------------------------------| x2|------------------------------------------------------||------------------------------------------------------|
|-17-17-17-17-17-17------------------17-17----------||-------------------13-13-15-13-10---------13-13-15-||----------------------------------12---------------||---------------------------------------------------||---------------------------------------------------||---------------------------------------------------|
|----------| |----------| |-17-||-13-12-10-| |-15-13-12-| |----||----------| |----------| |----||----------|x5|----------|x2|----||----------| |----------| |----||----------| |----------| |----|
End Solo
|----------------------------------------------------------||----------------------------------------------------------||----------------------------------------------------------||---------5-5-5-5-7-7-7-7------------------5-5-5-5-7-7-7-7-| x3|-7-7-7-7-3-3-3-3-5-5-5-5-7-7-5-5--7-7-7-7-3-3-3-3-5-5-5-5-||-5-5-5-5-----------------5-5-3-3--5-5-5-5-----------------|
That's it! Check them out at purevolume.com
Tap to rate this tab
 
# A B C D E F G H I J K L M N O P Q R S T U V W X Y Z