Misc Unsigned Bands - Rebels - Canadian Bacon tab

Intro-

|-------------------------------------------------------------3-----------||-------------1-------------------------------1---------1-------1---1-----||-------0-------0---0---------0---------2-------2---2-----2-------2-------||---------2-------2-----0-------0---0-----2-------2---------2-------------||-0-2-3-----3-------------2-------2---0-----0---------0-------------------||---------------------3-----3---------------------------------------------|x2
(In Indian Accent) "Canadian Bacon. Hehehehehee"-------------------------------------|-------------------------------------|-------2-0--------0--------0-------0-|-----2----------0--------0-------0---|---0----------2--------3-------2-----|------------3--------1-------3-------| x4 (In Indian Accent) "Oh! It is so good"
----= no music while singing words underneath the line G D Am ------- G D All our time is gone, so we'd best sit down to a meal of Canadian Bacon... D Am D -------------- With its overly delicous taste, I think I might just faint. Canadian Bacon
-------------------------------------|-------------------------------------|-------2-0--------0--------0-------0-|-----2----------0--------0-------0---|---0----------2--------3-------2-----|------------3--------1-------3-------| x4
G D Am ------- G D All our time is gone, so we'd best sit down to a meal of Canadian Bacon... D Am D -------------- With its overly delicous taste, I think I might just faint. Canadian Bacon (Drool like Homer) Solo-
------------------------------------------------------------|-------13------13------13------13------13-------------------|--10-13---10-13---10-13---10-13---10-13---------------------|------------------------------------------------------------|------------------------------------------------------------|------------------------------------------------------------|
------------------------------------------------------------|-------12------12------12------12------12------12-----------|--10-12---10-12---10-12---10-12---10-12---10-12-------------|------------------------------------------------------------|------------------------------------------------------------|------------------------------------------------------------|
------------------------------------------------------------|-------13------13------13------13------13-------------------|--10-13---10-13---10-13---10-13---10-13---------------------|------------------------------------------------------------|------------------------------------------------------------|------------------------------------------------------------|
------------------------------------------------------------|-------12------12------12------12------12------12-----------|--10-12---10-12---10-12---10-12---10-12---10-12-------------|------------------------------------------------------------|------------------------------------------------------------|------------------------------------------------------------|
Main Solo:
-15-15-16--13-15-13-12-13-15-15---------------13----15-16-15-|---------------------------------15---15-16-15----16---------|-------------------------------------------------------------|-------------------------------------------------------------|-------------------------------------------------------------|-------------------------------------------------------------|
-19-19-19-20--15-15-15-16-15---15-16-15----15-13-15-13---13-|----------------------------------------18-------------17---|------------------------------------------------------------|------------------------------------------------------------|------------------------------------------------------------|------------------------------------------------------------|
------------------------------------15-17-15-13-11-13----11-|-15-17-13---12-13-12----------------------------------15----|---------------------12-13-12----12-------------------------|------------------------------------------------------------|------------------------------------------------------------|------------------------------------------------------------|
--------------------------------------------------------------|-13-15-15-16-15---13-12-13-12-13-12h-13-12--------------------|------------------------------------------13-12-12----12------|---------------------------------------------------15---------|--------------------------------------------------------------|--------------------------------------------------------------|
----------------------------------------------13------------|----13-12----13-12-------------------------13---------------|-12-------l2-------12-12s10-10-------12-13-------13-12------|----------------------------------15------------------------|------------------------------------------------------------|------------------------------------------------------------|
----15-17-15------------------------------------------------|------------------------------------------------------------|-12----------12-12-10-10----10-12-12------------------------|------------------------------------------------------------|------------------------------------------------------------|------------------------------------------------------------|
End Of Solo
-------------------------------------|-------------------------------------|-------2-0--------0--------0-------0-|-----2----------0--------0-------0---|---0----------2--------3-------2-----|------------3--------1-------3-------| x8
G D Am ------- G D All our time is gone, so we'd best sit down to a meal of Canadian Bacon... D Am D -------------- With its overly delicous taste, I think I might just faint. Canadian Bacon Powerchord: G C Canadian, Canadian, Bacon Outro-
|-------------------------------------------------------------3-----------||-------------1-------------------------------1---------1-------1---1-----||-------0-------0---0---------0---------2-------2---2-----2-------2-------||---------2-------2-----0-------0---0-----2-------2---------2-------------||-0-2-3-----3-------------2-------2---0-----0---------0-------------------||---------------------3-----3---------------------------------------------|x2
(In Indian accent) "Canadian Bacon. Hehehehehee"
Tap to rate this tab
 
# A B C D E F G H I J K L M N O P Q R S T U V W X Y Z