Misc Unsigned Bands - Anadyne - Bravado tab

Anadyne "Bravado"
drop D tuning
Anadyne is a local band of 757 VA! They are a 4 peice high energy band with a great
guitarist and drummer. The bassist and the screamer are very talented too.


|------------------------------------||------------------------------------||------------------------------------||------------------------88888-77777-||-0-8p07p08p0Tp08p07h8p7-88888-77777-||-0----------------------88888-77777-|
|------------------------------------||------------------------------------||------------------------------------||------------------------88888-TTTTT-||-0-8p07p08p0Tp08p07h8p7-88888-TTTTT-||-0----------------------88888-TTTTT-|(x2 [played together])
|---PS-|*|-------------------------------------------|*|---PS-| |-------------------------------------------||---PS-| |-------------------------------------------||-0~PS-| |-0-00-15p14p12-TTTTTT-0-00-15p14p12-888888-||-0~Ps-| |-0-00----------TTTTTT-0-00----------888888-||-0~PS-| |-0-00----------TTTTTT-0-00----------888888-| (*= play 4x) pm .. ..
|---| |------------------| |-------------------||---| |------------------| |-------------------||---| |------------------| |-------------------||-0~| |-----------T---8--| |------------T---8--||-0~| |--878T878-8-8-7-7-| |--878T12T8-8-8-7-7-||-0~| |-0-------8---7----| (x2)|-0--------8---7----| (x2)
|--------------------------------------------------------------||--------------------------------------------------------------||--------------------------------------------------------------||-00-00-----00-00-000-----00-000-88-----88-888-77-----77-------||-00-00-8p7-00-00-000-8p7-00-000-88-Tp8-88-888-77-8p7-77-12T87-||-00-00-----00-00-000-----00-000-88-----88-888-77-----77-------|(x2)pm.. .. .. .. ... .. ... .. .. ... .. ..
|-----------------------------------------||-----------------------------------------||-----------------------------------------||-----------------------------------------||-00-12T87--12T87-12/-00-12T87--12T87-T-T-||-00------00------12/-00------00------T-T-|(x2)pm.. .. .. ..
|---------------------------------------------------------||--------------------------------------------------141414-||-------------------------------------------------- -||-0~-00-00-00-00-12/-00-00-0-00-00-0000-00-0000-00-121212-||-0~-00-00-00-00-12/-00-00-0-00-00-0000-00-0000-00--------||-0~-00-00-00-00-12/-00-00-0-00-00-0000-00-0000-00--------|pm .. .. .. .. .. .. . .. .. .... .. .... ..(play the part after the slide 2 times)
|------------------------------------||------------------------------------||------------------------------------||------------------------88888-77777-||-0-8p07p08p0Tp08p07h8p7-88888-77777-||-0----------------------88888-77777-|
|------------------------------------||------------------------------------||------------------------------------||------------------------88888-TTTTT-||-0-8p07p08p0Tp08p07h8p7-88888-TTTTT-||-0----------------------88888-TTTTT-|(x2 [played together])
|---||---||---||-0~||-0~||-0~|
|-------------------------------------------||-------------------------------------------||-------------------------------------------||-0-00-15p14p12-TTTTTT-0-00-15p14p12-888888-||-0-00----------TTTTTT-0-00----------888888-||-0-00----------TTTTTT-0-00----------888888-| (x2)pm .. ..
|-----------------------------------------||-----------------------------------------||------14h15-------------14h15------------||-0-00-------TTTTTT-0-00-------88888888-0~||-0-00-------TTTTTT-0-00-------88888888-0~||-0-00-------TTTTTT-0-00-------88888888-0~|pm .. ..
I know that the song is very close to 100% correct, but there are some few sketchy spots. But its a fun song so enjoy!
Tap to rate this tab
 
# A B C D E F G H I J K L M N O P Q R S T U V W X Y Z