Misc Unsigned Bands - Genuine Innocence - Dont Leave Me tab

                                 DON'T LEAVE ME
                        As recorded by Genuine Innocence

Music by Aaron Hetherington
Arranged By Aaron Hetherington
Transcribed by Aaron Hetherington

   Intro
    Moderately Fast Rock Q=135
    C5      D5        A5    F5
   4/4
    Gtr I
                                         4x
||------------------|--------------------||||o-----------------|-------------------o||||------5-------7---|-----2--------------||||----5---5---7---7-|---2-----------3----||||o-3-------5-------|-0-----------3---3-o||||------------------|-------1-(1)--------||
Verses 1 + 2 $ C D A F G 4/4 4x||------------------|--------------------||------|||o-----------------|-------------------o||------|||------5-------7---|-----2--------------||------|||----5---5---7---7-|---2-----------3----||------|||o-3-------5-------|-0-----------3---3-o||-3----|||------------------|-------1-(1)--------||------|
1. 2. C D A F A F/C Gtr II <||------------------|--------------------||-----------------|||o-----------------|-------------------o||-----------------|||------5-------7---|-----2--------------||-2-2-2-2-2-2-2-2-|||----5---5---7---7-|---2-----------3----||-2-2-2-2-3-3-3-3-|||o-3-------5-------|-0-----------3---3-o||-0-0-0-0-3-3-3-3-|||------------------|-------1-(1)--------||-----------------|
|
| Gtr I||------------------|--------------------||-------------1---|||o-----------------|-------------------o||-----------------|||------------------|--------------------||-----2-----2-----|||------------------|--------------------||---2-----3-------|||o-----------------|-------------------o||-0---------------|||------------------|--------------------||-------1---------|
Chorus D.S. C5 A5 F 4x||----------------8h10p8-|--------------1--1-1-----||||o----------------------|--------------1--1-1-0--o||||--x-x-5-5-x-x----------|-2-x-x-2-x-x--2--2-2-0---||||--x-x-5-5-x-x-5--------|-2-x-x-2-x-x--3--3-3-0---||||o-x-x-3-3-x-x----------|-0-x-x-0-x-x------------o||||-----------------------|-------------------------||
|
| Gtr I| 4x||-----------------------|-------------------------||||o----------------------|------------------------o||||--------5----------7---|-------2-----------------||||------5---5-----7----7-|---2---------------3-----||||o-3-----------5--------|-0---------------3---3--o||||-----------------------|---------1---(1)---------||
Breakdown C/E >|-----------------|-----h5-------------||-----------------|--5p================||-x---------------|-(x)----------------||-x---------------|-(x)----------------||-3---------------|-(3)----------------||-0---------------|-(0)----------------|
|
|-----------------|--------------------||-----------------|--------------------||-----5-------5---|--------2-----------||---5---5---5---5-|------2---2-----3---||-3-------3-------|--0-----------3---3-||-----------------|------------1-------|
|-----h5-------------|-----h5-------------|-h5--------||--x-----------------|-h5-----------------|-----h5----||-(x)----------------|-(x)----------------|-(x)-------||-(x)----------------|-(x)----------------|-(x)-------||-(3)----------------|-(3)----------------|-(3)-------||-(x)----------------|-(0)----------------|-(0)-------|
|
|--------------------|--------------------|-----------||--------------------|--------------------|-----------||--------5-------5---|--------2-----------|-----------||------5---5---5---5-|------2---2-----3---|-----------||--3---------3-------|--0-----------3---3-|--3--------||--------------------|------------1-------|-----------|
Gtr I|---------|-----------------|-----------------||---------|-----------------|-----------------||---------|-----5-------5---|-----2-----------||---------|---5---5---5---5-|---2---2-----3---||---------|-3-------3-------|-0---------3---3-||---------|-----------------|---------1-------|
|-----------------|-----------------||-----------------|-----------------||-----5-------5---|-----2-----------||---5---5---5---5-|---2---2-----3---||-3-------3-------|-0---------3---3-||-----------------|---------1-------|
|-----------------|---------||-------------------|||-----------------|---------||o-----------------o|||-----5-------5---|---------||------5-------5----|||---5---5---5---5-|---------||----5---5---5---5--|||-3-------3-------|---------||o-3-------3-------o|||-----------------|---------||-------------------||
Solo C5 A5 F Em/G Gtr III|-------------------------------|-------------8-8-8-7-||-------------------------------|-------5-8-----------||-7b9======7r(7)-------7-5--7---|---7-----------------||------------------5-7----------|---------------------||-------------------------------|---------------------||-------------------------------|---------------------|
|
| Gtr II|----------------------8h==10p8-|-------------1-1-1-0-||-------------------------------|-------------1-1-1-0-||-x----x-5-5--x--x--------------|-2-x-x-2-x-x-2-2-2-0-||-x----x-5-5--x--x-5------------|-2-x-x-2-x-x-3-3-3---||-x----x-3-3--x--x--------------|-0-x-x-0-x-x---------||-------------------------------|---------------------|
C5 A5 F Em/G ~~|-7-8-10---------12---15---|-17b19======17r(17)------------||----------15S17-----------|----------------------18-------||--------------------------|-------------------------------||--------------------------|-------------------------------||--------------------------|-------------------------------||--------------------------|-------------------------------|
|
|-------------------8h10p8-|-----------------------1-1-1-0-||--------------------------|-----------------------1-1-1-0-||-x-x--5-5--x--x-----------|--2-----x-x--2---x--x--2-2-2-0-||-x-x--5-5--x--x--5--------|--2-----x-x--2---x--x--3-3-3---||-x-x--3-3--x--x-----------|--0-----x-x--0---x--x----------||--------------------------|-------------------------------|
C5 A5 F Em/G|-------------------5----8-|-12s15---15-15-15---13-13-13-15-12-||---------------5-8--------|-----------------------------------||-7b9-----7-5-7------------|-----------------------------------||--------------------------|-----------------------------------||--------------------------|-----------------------------------||--------------------------|-----------------------------------|
|
|-------------------8h10p8-|------------------------1--1--1--0-||--------------------------|------------------------1--1--1--0-||-x---x-5-5-x-x------------|--2----x--x--2----x--x--2--2--2--0-||-x---x-5-5-x-x-5----------|--2----x--x--2----x--x--3--3--3----||-x---x-3-3-x-x------------|--0----x--x--0----x--x-------------||--------------------------|-----------------------------------|
C5 A5 F5 Em/G|----------------------|-12---------17---20-20-20-20b22==||----------------------|----15s==17----------------------||----------------------|---------------------------------||----------------------|---------------------------------||----------------------|---------------------------------||----------------------|---------------------------------|
|
|---------------8h10p8-|---------------------------0-----||----------------------|---------------------------0-----||-x-x-5-5-x-x----------|--2--x-x--2--x-x-----------0-----||-x-x-5-5-x-x-5--------|--2--x-x--2--x-x--3--3--3--------||-x-x-3-3-x-x----------|--0--x-x--0--x-x--3--3--3--------||----------------------|------------------1--1--1--------|
C5 A5 F5 Em/G|-20-----20-20---20-20r---20-|-19-------------17pb19r(17)---17pb19r(17)-15-||----------------------------|----17s====15--------------------------------||----------------------------|---------------------------------------------||----------------------------|---------------------------------------------||----------------------------|---------------------------------------------||----------------------------|---------------------------------------------|
|
|--------------------8h10p=8-|-------------------------------------------0-||----------------------------|-------------------------------------------0-||--x-x-5--5--x-x-------------|--2--x-x-2--x-x----------------------------0-||--x-x-5--5--x-x--5----------|--2--x-x-2--x-x--3----------3----------3-----||--x-x-3--3--x-x-------------|--0--x-x-0--x-x--3----------3----------3-----||----------------------------|-----------------1----------1----------1-----|
C5 A5 F5 Em/G|-12--------------------------------|---------------------------||------13---------------------------|---------------------------||---------12-14b16---12-------------|---------------------------||-----------------------10-12-14-10-|---------14------12\-------||-----------------------------------|-12-14------14-------------||-----------------------------------|---------------------------|
|
|------------------------8h10p====8-|-------------------------0-||-----------------------------------|-------------------------0-||--x-x--5--5--x----x----------------|--2--x-x--2--x-x---------0-||--x-x--5--5--x----x--5-------------|--2--x-x--2--x-x--3--3-3---||--x-x--3--3--x----x----------------|--0--x-x--0--x-x--3--3-3---||-----------------------------------|------------------1--1-1---|
C5 A5 F5 Em/G 8x||-----------------------|------------------------||||o-------------8--------|-------------3s6-8-6-5-o||||------5-5--------------|------------------------||||-----------------------|------------------------||||o----------------------|-----------------------o||||-----------------------|------------------------||
|
| 8x||----------------8h10p8-|---------------------0--||||o----------------------|---------------------0-o||||--x-x-5-5-x-x----------|-2-x-x-2-x-x---------0--||||--x-x-5-5-x-x-5--------|-2-x-x-2-x-x---3-3-3----||||o-x-x-3-3-x-x----------|-0-x-x-0-x-x---3-3-3---o||||-----------------------|---------------1-1-1----||
C5 C5 >|-----------|------------|------------|-------------|------------*||-----------|------------|------------|-------------|------------*||-^5--------|-(5)--------|-(5)--------|-(5)---------|-5-5-5-5----*||-^5--------|-(5)--------|-(5)--------|-(5)\--------|-5-5-5-5----*||-^3--------|-(3)--------|-(3)--------|-(3)\--------|-3-3-3-3----*||-----------|------------|------------|-------------|------------*|
Tablature Legend ---------------- h - hammer-on p - pull-off b - bend pb - pre-bend r - bend release (if no number after the r, then release immediately) /\ - slide into or out of (from/to "nowhere") s - legato slide S - shift slide - natural harmonic [n] - artificial harmonic n(n) - tapped harmonic ~ - vibrato tr - trill T - tap TP - trem. picking PM - palm muting \n/ - tremolo bar dip; n = amount to dip \n - tremolo bar down n/ - tremolo bar up /n\ - tremolo bar inverted dip = - hold bend; also acts as connecting device for hammers/pulls <> - volume swell (louder/softer) x - on rhythm slash represents muted slash o - on rhythm slash represents single note slash Misc Legend ----------- | - bar || - double bar ||o - repeat start o|| - repeat end *| - double bar (ending) : - bar (freetime) $ - Segno & - Coda Tempo markers - = BPM(8/16=s8/s16), where s8 = swing 8ths, s16 = swing 16ths
Tap to rate this tab
 
# A B C D E F G H I J K L M N O P Q R S T U V W X Y Z