Misc Unsigned Bands - Genuine Innocence - I Dont Care tab

                                   I DONT CARE
                                Genuine Innocence

Music by Genuine Innocence
Arranged by Genuine Innocence
Transcribed by Aaron Hetherington

Intro Moderate Q=135 Am G 4/4 Gtr I|-----------------|-----------------|-----------------|------------------||---1-----1-----1-|---1-----1-----1-|---------3-------|---------3--------||-----2---2-----2-|-----2---2-----2-|---0-----0-0---0-|---0-----0-0---0--||-------2---2-----|-------2---2-----|-----0-------0-0-|-----0-------0-0--||-0-----------0---|-0-----------0---|-----------------|------------------||-----------------|-----------------|-3-----3---------|-3-----3----------|
C F|---------0-------|---------0-------|-----------------|-----------------||-------1---1---1-|-------1---1---1-|-----------------|-----------------||---0---0-------0-|---0---0-------0-|-------2-2-----2-|-------2-2-----2-||-----2-------2-2-|-----2-------2-2-|---3-----3-3---3-|---3-----3-3---3-||-3---------------|-3---------------|-----3-------3---|-----3-------3---||-----------------|-----------------|-1---------------|-1---------------|
A|-------------------|---------------------||-----1-----1-----1-|------1-----1------1-||-------2---2-----2-|--------2---2------2-||---------2---2-----|----------2---2------||---0-----------0---|---0-------------0---||-------------------|---------------------|
|
| Gtr II| ~~~~~~~~~~~~~~~~~~~~~~~~~~~~~~~~~~~~~~~|-------------------|---------------------||-------------------|---------------------||-/14---------------|-(14)-----------17---||-------------------|---------------------||-------------------|---------------------||-------------------|---------------------|
G|------------------|-------------------------||----------3-------|--------------3----------||----0-----0-0---0-|------0-------0--0-----0-||------0-------0-0-|--------0-----------0--0-||------------------|-------------------------||--3-----3---------|---3------3--------------|
|
|~~~~~~~~~~~~~~~~~~~~~~~~~~~~~~~~~~~~~~~~~~~~|------------------|-------------------------||------------------|-------------------------||-16---------------|-(16)-------(16)---14-16-||------------------|-------------------------||------------------|-------------------------||------------------|-------------------------|
C|----------0-------|------------------0---------||--------1---1---1-|----------1----------1----1-||----0---0-------0-|------0---0---------------0-||------2-------2-2-|--------2---------------2-2-||--3---------------|---3------------------------||------------------|----------------------------|
|
| ~~~~~~~~~~~~~~~~~~~~~~~~~~~~~~~~~~~~~~~~~~~~~~|------------------|----------------------------||------------------|----------------------------||-17---------------|-(17)-------(17)-17-16-14---||------------------|----------------------------||------------------|----------------------------||------------------|----------------------------|
F|------------------|------------------------||------------------|------------------------||--------2-2-----2-|------------2-2------2--||----3-----3-3---3-|------3-------3--3---3--||------3-------3---|---------3---------3----||--1---------------|---1--------------------|
|
|~~~~~~~~~~~~~~~~~~~~~~~~~~~~~~~~~~~~~~|------------------|------------------------||------------------|------------------------||------------------|------------------------||-15---------------|-(15)---14-15---17------||------------------|------------------------||------------------|------------------------|
Verse Am G 4/4||------------------|-------------------|-----------------|-----------------|||o---1-----1-----1-|---1-----1------1--|---------3-------|---------3-------|||------2---2-----2-|-----2---2------2--|---0-----0-0---0-|---0-----0-0---0-|||--------2---2-----|-------2---2-------|-----0-------0-0-|-----0-------0-0-|||o-0-----------0---|-0-----------0-----|-----------------|-----------------|||------------------|-------------------|-3-----3---------|-3-----3---------|
|
||------------------|-------------------|-----------------|-----------------|||o-1-1-1-1-1-1-1-1-|-1-1-1-1-1-1-3-(3)-|-3-3-3-3-3-3-3-3-|-3-3-3-3-3-3-3-3-|||--2-2-2-2-2-2-2-2-|-2-2-2-2-2-2-2-(2)-|-0-0-0-0-0-0-0-0-|-0-0-0-0-0-0-0-0-|||--2-2-2-2-2-2-2-2-|-2-2-2-2-2-2-2-(2)-|-0-0-0-0-0-0-0-0-|-0-0-0-0-0-0-0-0-|||o-0-0-0-0-0-0-0-0-|-0-0-0-0-0-0-0-(0)-|-2-2-2-2-2-2-2-2-|-2-3-2-3-2-2-0-2-|||------------------|-------------------|-----------------|-----------------|
C F|---------0-------|---------0---------|-----------------|------------------|||-------1---1---1-|-------1---1----1--|-----------------|-----------------o|||---0---0-------0-|---0---0--------0--|-------2-2-----2-|-------2-2-----2--|||-----2-------2-2-|-----2-------2--2--|---3-----3-3---3-|---3-----3-3---3--|||-3---------------|-3-----------------|-----3-------3---|-----3-------3---o|||-----------------|-------------------|-1---------------|-1----------------||
|
|-----------------|-------------------|-----------------|------------------|||-1-1-1-1-1-1-1-1-|-1-1-1-1-1-1-1-(1)-|-1-1-1-1-1-1-1-1-|-1-1-1-1-1-1-1-1-o|||-0-0-0-0-0-0-0-0-|-0-0-0-0-0-0-0-(0)-|-2-2-2-2-2-2-2-2-|-2-2-2-2-2-2-2-2--|||-2-2-2-2-2-2-2-2-|-2-2-2-2-2-2-3-(3)-|-3-3-3-3-3-3-3-3-|-3-3-3-3-3-3-3-3--|||-3-3-3-3-3-3-3-3-|-3-3-3-3-3-3-3-(3)-|-3-3-3-3-3-3-3-3-|-3-3-3-3-3-3-3-3-o|||-----------------|-------------------|-----------------|------------------||
Fill Am Gtrs I, II|----------|------------|------------|--------||----------|------------|------------|--------||-5--------|-(5)--------|-(5)--------|-(5)----||-x--------|-(x)--------|-(x)--------|-(x)----||-x--------|-(x)--------|-(x)--------|-(x)----||-5--------|-(5)--------|-(5)--------|-(5)----|
Verse 2 Faster Q=180 A5 G5 PM----| PM--| PM----| PM--||-----------------|-----------------|-----------------|-----------------||-----------------|-----------------|-----------------|-----------------||-----------------|-----------------|-----------------|-----------------||-7-----------7-7-|-7-7-------7-7---|-5-----------5-5-|-5-5-------5-5---||-7-----------7-7-|-7-7-------7-7---|-5-----------5-5-|-5-5-------5-5---||-5---5-5-5-5-5-5-|-5-5-5-5-5-5-5---|-3---3-3-3-3-3-3-|-3-3-3-3-3-3-3---|
|
| Gtr II|-----------------|-----------------|-----------------|-----------------||-----------------|-----------------|-----------------|-----------------||-----------------|-----------------|-----------------|-----------------||-7-7-7-7-7-7-7-7-|-7-7-7-7-7-7-7-7-|-9-9-9-9-9-9-9-9-|-9-9-9-9-9-9-9-9-||-x-x-x-x-x-x-x-x-|-x-x-x-x-x-x-x-x-|-x-x-x-x-x-x-x-x-|-x-x-x-x-x-x-x-x-||-5-5-5-5-5-5-5-5-|-5-5-5-5-5-5-5-5-|-7-7-7-7-7-7-7-7-|-7-7-7-7-7-7-7-7-|
C5 PM------| PM---||-------------------------|-------------------------||-------------------------|-------------------------||--5-----------------5--5-|--5--5-----------5--5----||--5-----------------5--5-|--5--5-----------5--5----||--3-----3--3--3--3--3--3-|--3--3--3--3--3--3--3----||-------------------------|-------------------------|
|
|-------------------------|-------------------------||-------------------------|-------------------------||-------------------------|-------------------------||-10-10-10-10-10-10-10-10-|-10-10-10-10-10-10-10-10-||--x--x--x--x--x--x--x--x-|--x--x--x--x--x--x--x--x-||--8--8--8--8--8--8--8--8-|--8--8--8--8--8--8--8--8-|
F5 PM------| PM---||-------------------------|-------------------------||-------------------------|-------------------------||-------------------------|-------------------------||--3-----------------3--3-|--3--3-----------3--3----||--3-----------------3--3-|--3--3-----------3--3----||--1-----1--1--1--1--1--1-|--1--1--1--1--1--1--1----|
|
|-------------------------|-------------------------||-------------------------|-------------------------||-------------------------|-------------------------||-12-12-12-12-12-12-12-12-|-12-12-12-12-12-12-12-12-||--x--x--x--x--x--x--x--x-|--x--x--x--x--x--x--x--x-||-10-10-10-10-10-10-10-10-|-10-10-10-10-10-10-10-10-|
A5 PM------| PM---||-------------------------|-------------------------||-------------------------|-------------------------||-------------------------|-------------------------||--7-----------------7--7-|--7--7-----------7--7----||--7-----------------7--7-|--7--7-----------7--7----||--5-----5--5--5--5--5--5-|--5--5--5--5--5--5--5----|
|
|--------------0----------|--------------0----------||-------------------------|-------------------------||--2-----2--2-----2-----0-|--2-----2--2-----2-----0-||-------------------------|-------------------------||-------------------------|-------------------------||-------------------------|-------------------------|
|
| Gtr III|-------------------------|-------------------------||-------------------------|-------------------------||-------------------------|-------------------------||-14-14-14-14-14-14-14-14-|-14-14-14-14-14-14-14-14-||--x--x--x--x--x--x--x--x-|--x--x--x--x--x--x--x--x-||-12-12-12-12-12-12-12-12-|-12-12-12-12-12-12-12-12-|
G5 PM------| PM---||-------------------------|-------------------------||-------------------------|-------------------------||-------------------------|-------------------------||--5-----------------5--5-|--5--5-----------5--5----||--5-----------------5--5-|--5--5-----------5--5----||--3-----3--3--3--3--3--3-|--3--3--3--3--3--3--3----|
|
|-------------------------|-------------------------||-------------------------|-------------------------||-----------------5--4----|-----------------5--4----||--5-----5--5-------------|--5-----5--5-----------5-||-------------------------|-------------------------||-------------------------|-------------------------|
|
|-------------------------|-------------------------||-------------------------|-------------------------||-------------------------|-------------------------||-15-15-15-15-15-15-15-15-|-15-15-15-15-15-15-15-15-||--x--x--x--x--x--x--x--x-|--x--x--x--x--x--x--x--x-||-13-13-13-13-13-13-13-13-|-13-13-13-13-13-13-13-13-|
C5 PM------| PM---||-------------------------|-------------------------||-------------------------|-------------------------||--5-----------------5--5-|--5--5-----------5--5----||--5-----------------5--5-|--5--5-----------5--5----||--3-----3--3--3--3--3--3-|--3--3--3--3--3--3--3----||-------------------------|-------------------------|
|
| ~~ ~~|-------------------------|-------------------------||-------------------------|-------------------------||-------------12-10--9----|--9----------10--9-------||-10----10-10----------10-|-------------------10----||-------------------------|-------------------------||-------------------------|-------------------------|
|
|-------------------------|-------------------------||-------------------------|-------------------------||-------------------------|-------------------------||-17-17-17S15S14S10-10-10S|=17-17-17S15S14S10-10-10S||--x--x--x--x--x--x--x--x-|--x--x--x--x--x--x--x--x-||-15-15-15S13S12S=8--8--8S|=15-15-15S13S12S=8--8--8S|
F5 PM-----| PM----||---------------------|---------------------||---------------------|---------------------||---------------------|---------------------||--3--------------3-3-|-3-3---------3---3---||--3--------------3-3-|-3-3---------3---3---||--1---1-1--1--1--1-1-|-1-1-1---1-1-1---1---|
|
| ~|---------------------|---------------------||---------------------|---------------------||---------------------|-5-7-7b9r==5-7b9r==5-||--7---5----7---------|---------------------||---------------------|---------------------||---------------------|---------------------|
|
|---------------------|---------------------||---------------------|---------------------||---------------------|---------------------||-14--14---14-14S11S==|=8-------------------||--x---x----x--x--x---|-x-------------------||-12--12---12-12S=9S==|=6-------------------|
Chorus Dm G||---1-----1-------1--1--1------|-----------------------------|||o--3-----3-------3--3--3------|--3--3--3---3---3--3--3---3--|||---2-----2-------2--2--2------|--0--0--0---0---0--0--0---0--|||---0-----0-------0--0--0------|--0--0--0---0---0--0--0---0--|||o-----------------------------|--2--2--2---2---3--2--3---2--|||------------------------------|--3--3--3---3---3--3--3---3--|
|
||------------------------------|-----------------------------|||o-----------------------------|-----------------------------|||--12-12-14-(14)-------12-(12)-|-12-12-14-(14)-------12-(12)-|||----------------12-10---------|---------------12-10---------|||o-----------------------------|-----------------------------|||------------------------------|-----------------------------|
Am Em 4x|-----------------------------|----------------------|||--1-------1------1---1--1----|--0-0-0-0--0-0--0-0--o|||--2-------2------2---2--2----|--0-0-0-0--0-0--0-0---|||--2-------2------2---2--2----|--2-2-2-2--2-2--2-2---|||--0-------0------0---0--0----|--2-2-2-2--2-2--2-2--o|||-----------------------------|--0-0-0-0--0-0--0-0---||
|
| ~~~~~~~~~~~~~~~~| 4x|-----------------------------|----------------------|||-----------------------------|---------------------o|||-----------------------------|----------------------|||------------17-(17)-15-14----|----------------------|||-15-(15)-15---------------15-|-12-------14---15----o|||-----------------------------|----------------------||
Outro 1. 2. F Am||-----------|------------|----------|-------------||-----------|--------*|||o----------|------------|----------|------------o||-----------|--------*|||--2--------|-(2)--------|-5--------|-(5)---------||-^5--------|-(5)----*|||--x--------|-(x)--------|-x--------|-(x)---------||-^7--------|-(7)----*|||o-x--------|-(x)--------|-x--------|-(x)--------o||-^7--------|-(7)----*|||--1--------|-(1)--------|-5--------|-(5)---------||-^5--------|-(5)----*|
Tap to rate this tab
 
# A B C D E F G H I J K L M N O P Q R S T U V W X Y Z