Misc Unsigned Bands - Dysfunction - Blank tab

|----------------------------------------------------------||----------------------------------------------------------||----------------------------------------------------------||----------------------------------------------------------||----------------------------------------------------------||-000000000000000000-000000000000000000-000000000000000000-|
|--------------------||--------------------||--------------------||--------------------||--------------------||-000000000000000000-|
|----------------------------------------------------------------------||----------------------------------------------------------------------||----------------------------------------------------------------------||----------------------------------------------------------------------||-----------------------------------------------------3333333333333333-||-0000000000000000-8888888888888888-55555555-33333333------------------|
|--------------------------------------------------------------------||--------------------------------------------------------------------||--------------------------------------------------------------------||--------------------------------------------------------------------||-------------------------------------5---5---3---3-3333333333333333-||-0000000000000000-8888888888888888-5---5---3---3--------------------|
|----------------------------------------------------------------------||----------------------------------------------------------------------||----------------------------------------------------------------------||----------------------------------------------------------------------||----------------------------------------------------------------------||-00-000-000-06666-00-000-00-5p0-0h3p0-0h5p0-08888-5p0-0h3p0-4-1-1-1-1-|
|---------------------------------------------------||---------------------------------------------------||---------------------------------------------------||---------------------------------------------------||-1---------------------------------------------1---||---4-4-4-4-5p0-0h3p0-0h5p0-08888-5p0-0h3p0-4-1---4-|
|-----------------------------------------------------------------------||-----------------------------------------------------------------------||-----------------------------------------------------------------------||-----------------------------------------------------------------------||-----------------------------------------------------------------------||-00-000-000-06666-00-000-000-04444-00-000-000-06666-00-000-000-444-111-|
|-----------------------------------------------------------------------||-----------------------------------------------------------------------||-----------------------------------------------------------------------||-----------------------------------------------------------------------||---------------------------------------------------------------111-----||-00-000-000-06666-00-000-000-04444-00-000-06666-00-000-444-111-----444-|
|------------------------------------------------------||------------------------------------------------------||------------------------------------------------------||------------------------------------------------------||-------------------------1--1-1--1-1-1--3--3-3--3-3-3-||-0-6-5-0-3-5-0-6-5-0-3-5------------------------------|
|------------------------------------------------------------||------------------------------------------------------------||------------------------------------------------------------||------------------------------------------------------------||-1--1-1--1-1-1--3--3-3/7777-5555------------5555------------||---------------------------------2222-3-3/8------2222-3-3/8-|
|------------------------------------------------------------------------||------------------------------------------------------------------------||------------------------------------------------------------------------||------------------------------------------------------------------------||------------------------------------------------------------------------||-00-000-000-06666-00-000-000-04444-00-000-000-06666-00-000-000-0444-111-|
|------------------------------------------------------------------||------------------------------------------------------------------||------------------------------------------------------------------||------------------------------------------------------------------||-111--------------------------------------------------------------||-----444--00-000-06666-00-000-04444-00-000-06666-00-000-04444-111-|
|------------------------------------------------------||------------------------------------------------------||------------------------------------------------------||------------------------------------------------------||-------------------------1--1-1--1-1-1--3--3-3--3-3-3-||-0-6-5-0-3-5-0-6-5-0-3-5------------------------------|
|------------------------------------------------------||------------------------------------------------------||------------------------------------------------------||------------------------------------------------------||-------------------------1--1-1--1-1-1--3--3-3--3-3-3-||-0-6-5-0-3-5-0-6-5-0-3-5------------------------------|
|------------------------------------------------||------------------------------------------------||------------------------------------------------||------------------------------------------------||------------------------------------------------||-00335588-7777777-8757-00335588-777777777777777-|
|-----------------------------------------||-----------------------------------------||-----------------------------------------||-----------------------------------------||-5555-----------4444-5555-----------4444-||------8888-7777-----------8888-7777------|
|----------------------------------------||----------------------------------------||----------------------------------------||----------------------------------------||-5555------------5555-------------------||------2222-3-3/8------2222-3-3/8-787810-|
|----------------------------------------||----------------------------------------||----------------------------------------||----------------------------------------||-5555------------5555-------------------||------2222-3-3/8------2222-3-3/8-787810-|
|--------------------------------------------------------------------||--------------------------------------------------------------------||--------------------------------------------------------------------||--------------------------------------------------------------------||--------------------------------------------------------------------||-0000000000000000000000000000000000000000-8888888888888888-55555555-|
|----------------------------------||----------------------------------||----------------------------------||----------------------------------||----------------------------------||-33333333333-22222222222222222222-|
|--------------------------------------------------------------------||--------------------------------------------------------------------||--------------------------------------------------------------------||--------------------------------------------------------------------||--------------------------------------------------------------------||-0000000000000000000000000000000000000000-8888888888888888-55555555-|
|----------------------------------||----------------------------------||----------------------------------||----------------------------------||----------------------------------||-33333333333-22222222222222222222-|
|--------------------------||--------------------------||--------------------------||--------------------------||----1~-1-5-3-1-0----------||-0~--------------5~-3~-2~-|
|--------------------------------------------------------------------||--------------------------------------------------------------------||--------------------------------------------------------------------||--------------------------------------------------------------------||--------------------------------------------------------------------||-0000000000000000-8888888888888888-558-558-337-337-2222222222222222-|
|--------------------------------------------------------------------||--------------------------------------------------------------------||--------------------------------------------------------------------||--------------------------------------------------------------------||--------------------------------------------------------------------||-0000000000000000-8888888888888888-558-558-337-337-2222222222222222-|
|----------------------------------------------------------------------||----------------------------------------------------------------------||----------------------------------------------------------------------||----------------------------------------------------------------------||----------------------------------------------------------------------||-0000000000000000-33333333-44444444-5555555555555555-8888888888888888-|
|--------------------------------------------||--------------------------------------------||--------------------------------------------||--------------------------------------------||-8----------8--------------------------4444-||---88888888---10-10-8-7-333333333-7777------|
|----------------------------------------------------------------------||----------------------------------------------------------------------||----------------------------------------------------------------------||----------------------------------------------------------------------||----------------------------------------------------------------------||-0000000000000000-33333333-44444444-5555555555555555-8888888888888888-|
|----------------------------------------------||----------------------------------------------||----------------------------------------------||----------------------------------------------||-8----------8--------------------------4444---||---88888888---10-10-8-7-333333333-7777------0-|
.|---------------------------------------------------------------||---------------------------------------------------------------||---------------------------------------------------------------||---------------------------------------------------------------||-1--1-1--1-1-1--3--3-3--3-3-3-11111111-0000-4444---------------||-------------------------------------------------065035-065035-|
|---------------------------------------------------------------||---------------------------------------------------------------||---------------------------------------------------------------||---------------------------------------------------------------||-1--1-1--1-1-1--3--3-3--3-3-3-11111111-0000-4444---------------||-------------------------------------------------065035-065035-|
|------------------------------------------------||------------------------------------------------||------------------------------------------------||------------------------------------------------||------------------------------------------------||-00335588-7777777-8757-00335588-777777777777777-|
|------------------------------------------------||------------------------------------------------||------------------------------------------------||----------------------------------2----2-0-0----||-----------------------------1014---41---5-5----||-78757532-78757532-7532-7532-----------------0~-|
. .|------------------------------------------------||------------------------------------------------||------------------------------------------------||-------------3---3------------------------------||5----------5---5---5----5---------5-----4-----5-||--03565303-----------30---0356530---333---222---|
|------------------------------------------------||------------------------------------------------||------------------------------------------------||-------------3---3------------------------------||5----------5---5---5----5---------5-----4-----5-||--03565303-----------30---0356530---333---222---|
|------------------------------------------------||------------------------------------------------||------------------------------------------------||-------------3---3------------------------------||5----------5---5---5----5---------5-----4-----5-||--03565303-----------30---0356530---333---222---|
|------------------------------------------------||------------------------------------------------||------------------------------------------------||-------------3---3------------------------------||5----------5---5---5----5---------5-----4-----5-||--03565303-----------30---0356530---333---222---|
|------------------------------------------------||------------------------------------------------||------------------------------------------------||-------------3---3------------------------------||5----------5---5---5----5---------5-----4-----5-||--03565303-----------30---0356530---333---222---|
|------------------------------------------------||------------------------------------------------||------------------------------------------------||-------------3---3------------------------------||5----------5---5---5----5---------5-----4-----5-||--03565303-----------30---0356530---333---222---|
|------------------------------------------------||------------------------------------------------||------------------------------------------------||-------------3---3------------------------------||5----------5---5---5----5---------5-----4-----5-||--03565303-----------30---0356530---333---222---|
|------------------------------------------------||------------------------------------------------||------------------------------------------------||-------------3---3------------------------------||5----------5---5---5----5---------5-----4-----5-||--03565303-----------30---0356530---333---222---|
|------------------------------------------------||------------------------------------------------||------------------------------------------------||-------------3---3------------------------------||5----------5---5---5----5---------5-----4-----5-||--03565303-----------30---0356530---333---222---|
|------------------------------------------------||------------------------------------------------||------------------------------------------------||-------------3---3------------------------------||5----------5---5---5----5---------5-----4-----5-||--03565303-----------30---0356530---333---222---|
|------------------------------------------------||------------------------------------------------||------------------------------------------------||-------------3---3------------------------------||5----------5---5---5----5---------5-----4-----5-||--03565303-----------30---0356530---333---222---|
|------------------------------------------------||------------------------------------------------||------------------------------------------------||-------------3---3------------------------------||5----------5---5---5----5---------5-----4-----5-||--03565303-----------30---0356530---333---222---|
THERE FINALLY! TOOK ME LONG ENOUGH LOL
Tap to rate this tab
 
# A B C D E F G H I J K L M N O P Q R S T U V W X Y Z