Misc Unsigned Bands - Dysfunction - Waiting For The World To End tab

By: Matt Hare(lead Guitar Dysfunction)
Tuning: DADGBE


|-------------------------------|-------------------------------||-------------------------------|-------------------------------||-------------------------------|-------------------------------||-------------------------------|-------------------------------||---7---------------------------|---7---------------------------||-0---6-5-4-3-5-6-5-3-0-3-5-0-0-|-0---6-5-4-3-5-6-5-3-0-3-5-0-0-|
|-------------------------------|-------------------------------||-------------------------------|-------------------------------||-------------------------------|-------------------------------||-------------------------------|-------------------------------||---7---------------------------|---7---------------------------||-0---6-5-4-3-5-6-5-3-0-3-5-0-0-|-0---6-5-4-3-5-6-5-3-0-3-5-0-0-|
|-------------------------------------------------------||-------------------------------------------------------||-------------------------------------------------------||-------------------------------------------------------||-------5/7-------------0---------5/7-------------0-2---||-0-0-0-----0-2-3-0-2-3---1-0-0-0-----0-2-3-0-2-3-----0-|
|-------------------------------------------------------||-------------------------------------------------------||-------------------------------------------------------||-------------------------------------------------------||-------5/7-------------0---------5/7-------------0-2---||-0-0-0-----0-2-3-0-2-3---1-0-0-0-----0-2-3-0-2-3-----0-|
|-------------------------------------------------------||-------------------------------------------------------||-------------------------------------------------------||-------------------------------------------------------||-------5/7-------------0---------5/7-------------0-2---||-0-0-0-----0-2-3-0-2-3---1-0-0-0-----0-2-3-0-2-3-----0-|
|-------------------------------------------------------||-------------------------------------------------------||-------------------------------------------------------||-------------------------------------------------------||-------5/7-------------0---------5/7-------------0-2---||-0-0-0-----0-2-3-0-2-3---1-0-0-0-----0-2-3-0-2-3-----0-|
|-------------------------------------------------------||-------------------------------------------------------||-------------------------------------------------------||-------------------------------------------------------||-------5/7-------------0---------5/7-------------0-2---||-0-0-0-----0-2-3-0-2-3---1-0-0-0-----0-2-3-0-2-3-----0-|
|-------------------------------------------------------||-------------------------------------------------------||-------------------------------------------------------||-------------------------------------------------------||-------5/7-------------0---------5/7-------------0-2---||-0-0-0-----0-2-3-0-2-3---1-0-0-0-----0-2-3-0-2-3-----0-|
|-------------------------------------------------------||-------------------------------------------------------||-------------------------------------------------------||-------------------------------------------------------||-------5/7-------------0---------5/7-------------0-2---||-0-0-0-----0-2-3-0-2-3---1-0-0-0-----0-2-3-0-2-3-----0-|
|-------------------------------------------------------||-------------------------------------------------------||-------------------------------------------------------||-------------------------------------------------------||-------5/7-------------0---------5/7-------------0-2---||-0-0-0-----0-2-3-0-2-3---1-0-0-0-----0-2-3-0-2-3-----0-|
|---------|---------|---------|------||---------|---------|---------|------||---------|---------|---------|------||---------|---------|---------|------||---------|---------|---------|------||-0-0-1-0-|-0-0-1-0-|-0-0-1-0-|-0~~~-|
|-------------------------------------------------------------------||-------------------------------------------------------------------||-------------------------------------------------------------------||-------------------------------------------------------------------||-------------------------------------------------------------------||-5-5-5-5-5-5-5-5--7-7-7-7-7-7-7-7--9-9-9-9-9-9-9-9--12-11--9-7-5-3-|
|---------------------------------------------------||---------------------------------------------------||---------------------------------------------------||---------------------------------------------------||---------------------------------------------------||-3-3-3-3-3-3-3-3--5-5-5-5-5-5-5-5--2-2-2-2-2-2-2-2-|
|------------------------------------------------------------------------||------------------------------------------------------------------------||------------------------------------------------------------------------||------------------------------------------------------------------------||------------------------------------------------------------------------||-9-9-9-9-9--9-9-9-9-9-7--5-5-5-5-5--5-5-5-5-5-4--2-2-2-2-2--2-2-2-2-2-4-|
|--------------------------||--------------------------||--------------------------||--------------------------||--------------------------||-7-7-7-7-7-7--9-9-9-9-9-9-|
Tap to rate this tab
 
# A B C D E F G H I J K L M N O P Q R S T U V W X Y Z