Misc Unsigned Bands - Aureal - Panico tab

Banda: Aureal
Album: "Sueos"
Tema: Pnico

AFINACION: OPEN C (C-G-C-F-A-D)

pm: palm mute
/ slide
LR: Let Ring


INTRO: SOBRE BASE 1 (CON WHA)

BASE 1: (X4)

|---------------------------------------||---------------------------------------||---------------------------------------||--0-10-12-0-10-12-0-10-0-10-0-9/10/9---||--0-10-12-0-10-12-0-10-0-10-0-9/10/9---||--0-10-12-0-10-12-0-10-0-10-0-9/10/9---|
BASE 2: (X4)
|---------------------------------------------||---------------------------------------------||---------------------------------------------||--0-10-12-0-10-12-0-10-12-0-10-12-0-9/10/9---||--0-10-12-0-10-12-0-10-12-0-10-12-0-9/10/9---||--0-10-12-0-10-12-0-10-12-0-10-12-0-9/10/9---|
REPITE BASE 1 Y BASE 2 SOLO EN LA 6 CUERDA Y CON PM ESTRIBILLO: (X2)
|----------------------------------------------------------------||----------------------------------------------------------------||----------------------------------------------------------------||--0-8-7-0--0/10--0-3-0-3-0-3/5---0-8-7-0--0/10--0-3-0-3-0-3/5/3-||--0-8-7-0--0/10--0-3-0-3-0-3/5---0-8-7-0--0/10--0-3-0-3-0-3/5/3-||--0-8-7-0--0/10--0-3-0-3-0-3/5---0-8-7-0--0/10--0-3-0-3-0-3/5/3-|
CORTE.- SOBRE BASE 1 DEL BAJO, LA GUITARRA HACE:
|--------------------------------------------------------------||--------------------------------------------------------------||-------------------------------------------------12-----------||--0-10/12-12-12---10-10/9--0-10/12-12-12--10--10----10--------| (X2)|--------------------------------------------------------------||--------------------------------------------------------------| |PM| |PM|
|---------------------------------------------0--0--0--0-------||---------------------------------------------0--0--0--0-------||---------------------------------------------0--0--0--0-------||-10-12----10-12--10-0-0-0----10-12----10-12--10-10-10-10------||-10-12----10-12--10-0-0-0----10-12----10-12--10-10-10-10------||-10-12----10-12--10-0-0-0----10-12----10-12--10-10-10-10------| |PM|
|---------------------------------------------------------------------||---------------------------------------------------------------------||---------------------------------------------------------------------||-10-12----10-12--10-0-0-0--0-10-12-0-10-12-0-10-12-0-10-12-0-9/10-10-||-10-12----10-12--10-0-0-0--0-10-12-0-10-12-0-10-12-0-10-12-0-9/10-10-||-10-12----10-12--10-0-0-0--0-10-12-0-10-12-0-10-12-0-10-12-0-9/10-10-| |PM|
ESTRIBILLO X2.- REPITE ESTRIBILLO (X2) (SOBRE TONES) FILL 1: (X2)
|--------------------------------------------------------------------------------------||--------------------------------------------------------------------------------------||--------------------------------------------------------------------------------------||--0-0---3-0---0-8-8/7--7/0-0---3-0---0-8-8/7--7/12-12-12-12-12-12/14-14/12-12-8-8-8-7-||--0-0---3-0---0-8-8/7--7/0-0---3-0---0-8-8/7--7/12-12-12-12-12-12/14-14/12-12-8-8-8-7-||--0-0---3-0---0-8-8/7--7/0-0---3-0---0-8-8/7--7/12-12-12-12-12-12/14-14/12-12-8-8-8-7-|
FILL 2:
|----------------------------------------------------------||----------------------------------------------------------||----------------------------------------------------------||--12-12-12-12-12-12/14/12-12-12-12-12--0-0-12-0-0-0-0-12--||--12-12-12-12-12-12/14/12-12-12-12-12--0-0-12-0-0-0-0-12--||--12-12-12-12-12-12/14/12-12-12-12-12--0-0-12-0-0-0-0-12--| (X2)
|---------------------------------------------------||---------------------------------------------------||---------------------------------------------------||--12-12-12-12-12-12/14/12-12-12-12-12--10-10-10-9--||--12-12-12-12-12-12/14/12-12-12-12-12--10-10-10-9--||--12-12-12-12-12-12/14/12-12-12-12-12--10-10-10-9--|
REPITE BASE 1.- FILL 3: (X2)
|--------------------------------------------------||--------------------------------------------------||--------------------------------------------------||--0-10-12-12-12-12-10-10-10-10-9-9-9-9-9/10-9/10--||--0-10-12-12-12-12-10-10-10-10-9-9-9-9-9/10-9/10--||--0-10-12-12-12-12-10-10-10-10-9-9-9-9-9/10-9/10--| PM
FILL 4 (X2)
|---------------------------------------------------------------------------0--0--0--0--||---------------------------------------------------------------------------0--0--0--0--||---------------------------------------------------------------------------0--0--0--0--||--0-10-12-0-10-12-0-10-12-0-10-12-0-0-0-0--0-10-12-0-10-12-0-10-12-0-10-12-10-10-10-10-||--0-10-12-0-10-12-0-10-12-0-10-12-0-0-0-0--0-10-12-0-10-12-0-10-12-0-10-12-10-10-10-10-||--0-10-12-0-10-12-0-10-12-0-10-12-0-0-0-0--0-10-12-0-10-12-0-10-12-0-10-12-10-10-10-10-|
www.aurealmusic.com.ar
Tap to rate this tab
 
# A B C D E F G H I J K L M N O P Q R S T U V W X Y Z