Misc Unsigned Bands - Over The Stars - I Hope You Die tab

I Wish You Would Die
--------------------
by Over The Stars
(Written By TheK AKA Meat)

Solo Guitar

Standard Tuning

-0-00-0-0--0-00-0-0--0-00-0-0--0-00-00---|-3-33-3-3--5-55-5-5--4-44-4-4--3-33-33---|-0-00-0-0--0-00-0-0--0-00-0-0--0-00-00---|-0-00-0-0--0-00-0-0--0-00-0-0--0-00-00---|-0-00-0-0--0-00-0-0--0-00-0-0--0-00-00---|-3-33-3-3--5-55-5-5--4-44-4-4--3-33-33---| (X2)
-0-00-0-0--0-00-0-0--0-00-0-0--0-00-00---|-3-33-3-3--5-55-5-5--4-44-4-4--3-33-33---|-0-00-0-0--0-00-0-0--0-00-0-0--0-00-00---|-0-00-0-0--0-00-0-0--0-00-0-0--0-00-00---|-0-00-0-0--0-00-0-0--0-00-0-0--0-00-00---|-3-33-3-3--5-55-5-5--4-44-4-4--3-33-33---| I Don't Know What's Wrong
-0-00-0-0--0-00-0-0--0-00-0-0--0-00-00---|-3-33-3-3--5-55-5-5--4-44-4-4--3-33-33---|-0-00-0-0--0-00-0-0--0-00-0-0--0-00-00---|-0-00-0-0--0-00-0-0--0-00-0-0--0-00-00---|-0-00-0-0--0-00-0-0--0-00-0-0--0-00-00---|-3-33-3-3--5-55-5-5--4-44-4-4--3-33-33---| You Are So Mean
-0-00-0-0--0-00-0-0--0-00-0-0--0-00-00---|-3-33-3-3--5-55-5-5--4-44-4-4--3-33-33---|-0-00-0-0--0-00-0-0--0-00-0-0--0-00-00---|-0-00-0-0--0-00-0-0--0-00-0-0--0-00-00---|-0-00-0-0--0-00-0-0--0-00-0-0--0-00-00---|-3-33-3-3--5-55-5-5--4-44-4-4--3-33-33---| Don't Talk To Me
-0-00-0-0--0-00-0-0--0-00-0-0--0-00-00---|-3-33-3-3--5-55-5-5--4-44-4-4--3-33-33---|-0-00-0-0--0-00-0-0--0-00-0-0--0-00-00---|-0-00-0-0--0-00-0-0--0-00-0-0--0-00-00---|-0-00-0-0--0-00-0-0--0-00-0-0--0-00-00---|-3-33-3-3--5-55-5-5--4-44-4-4--3-33-33---| You Make Me Sick
----0------0------0------0---------------|----3------5------4------3---------------|----0------0------0------0---------------|----0------0------0------0---------------|----0------0------0------0---------------|----3------5------4------3---------------| I Wish You Would Die
-0-00-0-0--0-00-0-0--0-00-0-0--0-00-00---|-3-33-3-3--5-55-5-5--4-44-4-4--3-33-33---|-0-00-0-0--0-00-0-0--0-00-0-0--0-00-00---|-0-00-0-0--0-00-0-0--0-00-0-0--0-00-00---|-0-00-0-0--0-00-0-0--0-00-0-0--0-00-00---|-3-33-3-3--5-55-5-5--4-44-4-4--3-33-33---| I Loved You You Know
-0-00-0-0--0-00-0-0--0-00-0-0--0-00-00---|-3-33-3-3--5-55-5-5--4-44-4-4--3-33-33---|-0-00-0-0--0-00-0-0--0-00-0-0--0-00-00---|-0-00-0-0--0-00-0-0--0-00-0-0--0-00-00---|-0-00-0-0--0-00-0-0--0-00-0-0--0-00-00---|-3-33-3-3--5-55-5-5--4-44-4-4--3-33-33---| You Broke My Heart
-0-00-0-0--0-00-0-0--0-00-0-0--0-00-00---|-3-33-3-3--5-55-5-5--4-44-4-4--3-33-33---|-0-00-0-0--0-00-0-0--0-00-0-0--0-00-00---|-0-00-0-0--0-00-0-0--0-00-0-0--0-00-00---|-0-00-0-0--0-00-0-0--0-00-0-0--0-00-00---|-3-33-3-3--5-55-5-5--4-44-4-4--3-33-33---| I Can't Forgive You
-0-00-0-0--0-00-0-0--0-00-0-0--0-00-00---|-3-33-3-3--5-55-5-5--4-44-4-4--3-33-33---|-0-00-0-0--0-00-0-0--0-00-0-0--0-00-00---|-0-00-0-0--0-00-0-0--0-00-0-0--0-00-00---|-0-00-0-0--0-00-0-0--0-00-0-0--0-00-00---|-3-33-3-3--5-55-5-5--4-44-4-4--3-33-33---| You Are So Cruel
----0------0------0------0---------------|----3------5------4------3---------------|----0------0------0------0---------------|----0------0------0------0---------------|----0------0------0------0---------------|----3------5------4------3---------------| I Wish You Would Die
----0------0------0------0---------------|----3------5------4------3---------------|----0------0------0------0---------------|----0------0------0------0---------------|----0------0------0------0---------------|----3------5------4------3---------------| I Wish You Would Die
-0-00-0-0--0-00-0-0--0-00-0-0--0-00-00---|-3-33-3-3--5-55-5-5--4-44-4-4--3-33-33---|-0-00-0-0--0-00-0-0--0-00-0-0--0-00-00---|-0-00-0-0--0-00-0-0--0-00-0-0--0-00-00---|-0-00-0-0--0-00-0-0--0-00-0-0--0-00-00---|-3-33-3-3--5-55-5-5--4-44-4-4--3-33-33---| I Wish You Would Die
-0-00-0-0--0-00-0-0--0-00-0-0--0-00-00---|-3-33-3-3--5-55-5-5--4-44-4-4--3-33-33---|-0-00-0-0--0-00-0-0--0-00-0-0--0-00-00---|-0-00-0-0--0-00-0-0--0-00-0-0--0-00-00---|-0-00-0-0--0-00-0-0--0-00-0-0--0-00-00---|-3-33-3-3--5-55-5-5--4-44-4-4--3-33-33---| I Wish You Would Die
-0-00-0-0--0-00-0-0--0-00-0-0--0-00-00---|-3-33-3-3--5-55-5-5--4-44-4-4--3-33-33---|-0-00-0-0--0-00-0-0--0-00-0-0--0-00-00---|-0-00-0-0--0-00-0-0--0-00-0-0--0-00-00---|-0-00-0-0--0-00-0-0--0-00-0-0--0-00-00---|-3-33-3-3--5-55-5-5--4-44-4-4--3-33-33---| I Wish You Would Die
----0------0------0------0---------------|----3------5------4------3---------------|----0------0------0------0---------------|----0------0------0------0---------------|----0------0------0------0---------------|----3------5------4------3---------------| I Wish You Would Die
This song is really simple. I wrote it, and you can hear it on our myspace page. our myspace isn't up yet, I'll post a link in the comments soon)
Tap to rate this tab
 
# A B C D E F G H I J K L M N O P Q R S T U V W X Y Z