Misc Unsigned Bands - Drown In Sorrow - The Temple Rises tab

tabbed by:immorta51654

h=hammer on
p=pull off
/=slide up
=slide down
b^=bend string up
b=bend string down
h*=harmonic
t=fingertaooing

intro solo1--------------------|2-13h----------------|3----8h11p-12b11h*---|4--------------------|5--------------------|6--------------------|
1-----12-----17------|2---13--12/15--8h10p-|3-14-----------------|4--------------------|5--------------------|6--------------------|
1-13t13t13t13t13t13t2-------------------|3-------------------|4-------------------|5-------------------|6-------------------|
1-13t13t13t13t13t13t2-------------------|3-------------------|4-------------------|5-------------------|6-------------------|
1--------------------|2--------------16-13-|3--------------------|4------------13h-----|5-17h14p/21b^--------|6--------------------|
verse riffA1------------|2------------|3------------|4-9-7--9-7-5-|5------------|6------------|
1------------|2------------|3------------|4-9-7--9-7-5-|5------------|6------------|
1-------10---|2-------10---|3------------|4-6-6-8------|5-6-6-8------|6-6-6-8------|
1-------12---|2-------12---|3------------|4-6-6-8------|5-6-6-8------|6-6-6-8------|
1-------------------------------|2-------------------------------|3-------------------------------|4-6-6-6-6-6-8-8-8-8-10-10-10-10-|5-6-6-6-6-6-8-8-8-8-10-10-10-10-|6-6-6-6-6-6-8-8-8-8-10-10-10-10-|
chorus1-0-0-0-0-0-0-0-0-0-0-0-0-0-0-0-0-|2-0-0-0-0-0-0-0-0-0-0-0-0-0-0-0-0-|3-0-0-0-0-0-0-0-0-0-0-0-0-0-0-0-0-|4-0-0-0-0-0-0-0-0-0-0-0-0-0-0-0-0-|5-0-0-0-0-0-0-0-0-0-0-0-0-0-0-0-0-|6-0-0-0-0-0-0-0-0-0-0-0-0-0-0-0-0-|
1------|2------|3------|4------|5-16---|6-16---|
solo 1------------
2-12b/15h13p-3------------|4------------|5------------|6------------|
1-16-12----14-|b2--14-12-13---|3-------------|4-------------|5-------------|6-------------|
1-12t12t14t14t2-------------|3-------------|4-------------|5-------------|6-------------|
1-13h15p12h8b2-------------|3-------------|4-------------|5-------------|6-------------|
Tap to rate this tab
 
# A B C D E F G H I J K L M N O P Q R S T U V W X Y Z