Misc Unsigned Bands - Acidic Hypocrite - Utsushimi tab

b  - Bend
r  - Release
^  - Let Ring

Chorus:-|--------------------------------|-|--------------------------------|-|--------------------------------|-|-22-542----542----542----542----|-|-00-320-55-320-33-320-22-320----|-|--------33-----11-----00----0-3-|
-|--------------------------------|-|--------------------------------|-|--------------------------------|-|-22-975----975----542----542----|-|-00-753-55-753-33-753-22-753----|-|--------33-----11-----00--------|(x2)
Let this ring...-|---|---|--
-|-2-|-0-|--
-|------------|-|------------|-|------------|-|-222-7b--7--|r-|-000-7b--7--|r-|------------|
Verse:-|---------------|-|---------------|-|---------------|-|---------------|-|-7-5-3-2-------|brbrbr-|--7-5-3--------| (x4)
Pre:-|---|---|--
-|-2-|-0-|--
Chorus:-|--------------------------------|-|--------------------------------|-|--------------------------------|-|-22-542----542----542----542----|-|-00-320-55-320-33-320-22-320----|-|--------33-----11-----00----0-3-|
-|--------------------------------|-|--------------------------------|-|--------------------------------|-|-22-975----975----542----542----|-|-00-753-55-753-33-753-22-753----|-|--------33-----11-----00--------|(x2)
Let this ring...-|---|---|--
-|-2-|-0-|--
-|------------|-|------------|-|------------|-|-222-7b--7--|r-|-000-7b--7--|r-|------------|
Verse:-|---------------|-|---------------|-|---------------|-|---------------|-|-7-5-3-2-------|brbrbr-|--7-5-3--------| (x4)
Pre:-|---|---|--
-|-2-|-0-|--
Chorus:-|--------------------------------|-|--------------------------------|-|--------------------------------|-|-22-542----542----542----542----|-|-00-320-55-320-33-320-22-320----|-|--------33-----11-----00----0-3-|
-|--------------------------------|-|--------------------------------|-|--------------------------------|-|-22-975----975----542----542----|-|-00-753-55-753-33-753-22-753----|-|--------33-----11-----00--------|(x2)
Solo-|---3-2-7777----777--88888-555-777-|-|-----------5555---78--------------|-|4-5-------------------------------|-|----------------------------------|-|----------------------------------|-|----------------------------------|
-|-888-10-10-10-12-12-12-14-14-10-|-|--------------------------------|-|--------------------------------|-|--------------------------------|-|--------------------------------|-|--------------------------------|
-|---7--7-2-3-2--7-77-8-10-12-|-|-5--5--3-3-3-5--5-----------|-|----------------------------|-|----------------------------|-|----------------------------|-|----------------------------|
Bridge:pM .....-|--------------|-|--------------|-|--------------|-|-9-----7--5---|
-|-7999995773522-|--77777-55-3-- (x6)
Chorus (USING WAH):-|--------------------------------|-|--------------------------------|-|--------------------------------|-|-22-542----542----542----542----|-|-00-320-55-320-33-320-22-320----|-|--------33-----11-----00----0-3-|
-|-------------------------------|-|-------------------------------|-|-------------------------------|-|-22-975----975----542----542---|-|-00-753-55-753-33-753-22-753---|-|--------33-----11-----00-------|
Chorus (Normal):-|--------------------------------|-|--------------------------------|-|--------------------------------|-|-22-542----542----542----542----|-|-00-320-55-320-33-320-22-320----|-|--------33-----11-----00----0-3-|
-|-------------------------------|-|-------------------------------|-|-------------------------------|-|-22-975----975----542----542---|-|-00-753-55-753-33-753-22-753---|-|--------33-----11-----00-------|
Tap to rate this tab
 
# A B C D E F G H I J K L M N O P Q R S T U V W X Y Z