Misc Unsigned Bands - Paradox - Killing The Contract tab

This Song can be heard at www.myspace.com/dreckon

Tuning E A D G B E Standard

t Tap
h Hammer on
p Pull Off
/ Slide
. Palm Mute
b Bend
~ Vibrato

Intro(0:00-0:08):

-------------------------------------------------|-------------------------------------------------|-------------------------------------------------|--2------/7--------------------------------------|--2------/9-----7h97h97h97h9t12-7h9t12-7h97h97h9-|--0----------------------------------------------|
Slight Pause for drums Verse (0:14 -0:37)
-------------------------------------------------|-------------------------------------------------|-------------------------------------------------|-------5------5------5------5--5h7p5h7p5h7-------|---7-7----7-7----7-7----7-7----------------------|-------------------------------------------------| . . . . . . . .
-------------------------------------------------|-------------------------------------------------|-------------------------------------------------|-------5------5------5---------------------------|---7-7----7-7----7-7----7-7---5b6p0--------------|------------------------------------5b6p0--------| . . . . . . . .
Play that through 3 times until the last bar which goes:
-------------------------------------------------|-------------------------------------------------|-------------------------------------------------|-------5------5------5------5--5h7p5h7p5h7-------|---7-7----7-7----7-7----7-7----------------------|-------------------------------------------------| . . . . . . . .
-------------------------------------------------|-------------------------------------------------|-------------------------------------------7-9---|-------5------5-------------5h7p5---5-7/9--------|---7-7----7-7----7-7----5h7-------7--------------|-------------------------------------------------| . . . . . .
Chorus(0:37 -1:00)--------------------------------------------------------------|--------------------------------------------------------------|--------------------------------------------------------------|-7-7-7--7-7--9-9-9--9-9--10-10-10--10-10--12-12-12--12-12 x 2-|-5-5-5--5-5--7-7-7--7-7--9--9--9---9--9---10-10-10--10-10-----|--------------------------------------------------------------|
---------------------------------7b~~-------------------|--------5b~~-------7b~~---------10b~~-----------12b~~---|--------7b~~-------9b~~-------------------------10b~~---|-7-7-7------9-9-9-------10-10-10-------12-12-12---------| x 2-5-5-5------7-7-7-------9--9--9--------10-10-10---------|--------------------------------------------------------|
Listen to www.myspace.com/dreckon for the rhythm Bridge (1:00- 1:13)
--------------------------------------------------------|--------------------------------------------------------|-----------------------------10-10-10---10-10-10-10--10-|---10-10-10--10-10-10-10-10--12-12-12----9--9--9--9--9--| x 3---12-12-12--9--9--9--9--9------------------------------|--------------------------------------------------------|
--------------------------------------------------------|--------------------------------------------------------|-----------------------------12-12-12--14-14-14-14-14---|---10-10-10--10-10-10-10-10--10-10-10-------------------| x 1---12-12-12--9--9--9--9--9-------------12-12-12-12-12---|--------------------------------------------------------|
Verse (1:13 -01:34) The Verse Is the same apart from a few few fills Fill One:
-------------------------------------------------|-------------------------------------------------|-------------------------------------------7-9---|-------5------5-------------5h7p5---5-7/9--------|---7-7----7-7----7-7----5h7-------7--------------|-------------------------------------------------| . . . . . .
Fill 2:-------------------------------------------------|------------------------------10b12p10-----------|---------------------------------------9---------|-------5------5------5---------------------------|---7-7----7-7----7-7---7-7-----------------------|-------------------------------------------------| . . . . . . . .
Fill 3:
----------------------7p5p0-8p7p5p0-5p3p0-7p5p0--|-------------------------------------------------|-------------------------------------------------|-------5------5----------------------------------|---7-7----7-7----7-7-----------------------------|-------------------------------------------------| . . . . . .
Chorus (01:34- 01:57) Bridge (01:57- 02:08) Interlude(02:08 - 02:33)
-----------------------------------------------------------------------|--------------------------------------10--10--10--10-------------------|-----7--7--7--7------9--9--9--9-----------------------------12--12-----|----5--5--5--5-5----7--7--7--7-7-----9---9---9---9--9------10--10--10--|---7--7--7--7---7--9--9--9--9---9--10--10--10--10----10---12--12--12---|-----------------------------------------------------------------------|
-----------------------------------------------------------------------|----12--12-------------------------------------------------------|---12--12--------------------------------------------------------|--12--12---------------------------------------------------------|-----------------------------------------------------------------------|-----------------------------------------------------------------------|
Chorus (02:33 -02:54) Bridge (02:54 -03:06) Outro
-----------------------------------------------------------------------|-----------------------------------------------------------------------|--9-9-9-9-11-12--11-11-11-12-14--12-12-12-14-16--14-14-14-16-17--------|--x-x-x-x--x--x---x--x--x--x--x---x--x--x--x--x---x--x--x--x--x--------|--7-7-7-7--9-10---9--9--9-10-12--10-10-10-12-14--12-12-12-14-15--------|x2-----------------------------------------------------------------------|
-12-12-12-14-15--14-14-14-15-17--15-15-15-17-19-19-19------------------|--x--x--x--x--x---x--x--x--x--x---x--x--x--x--x--x--x------------------|--9--9--9-11-12--11-11-11-12-14--12-12-12-14-16-16-16------------------|-----------------------------------------------------------------------|x 2-----------------------------------------------------------------------|-----------------------------------------------------------------------|
Listen At www.myspace.com/dreckon
Tap to rate this tab
 
# A B C D E F G H I J K L M N O P Q R S T U V W X Y Z