Misc Unsigned Bands - Blinded Mind - And All Things Will End tab


This is and all things will end from a7x but my band is redoing it

Drop D

|-----------------|-------------------|-------------------|-----------||-----------------|-------------------|-------------------|---------^2||-------2-0---^2--|-----0-0h2-0-------|-------0-0h2-0---0-|-----3---^3||---2-3-----3-^3--|---2---------2---2-|---2-3---------3---|---2---2-^2||-5---------------|-3-------------3---|-1-----------------|-0-------^0||-----------------|-------------------|-------------------|-----------|
|---------------------------------------------------||-------------------------------5h6p5---------gtr.2-||-------------------------------6h7p6---------gtr.1-||-0--0-0-0-0-0-0-0-0-0-0-0-0-0----------------------| repeat|-0--0-0-0-0-0-0-0-0-0-0-0-0-0----------------------||-0--0-0-0-0-0-0-0-0-0-0-0-0-0----------------------|PM - - - - - - - - - - - - -
|------------------------------------------------------||------------------------------------------------------||------------------------6h7-6-------------------gtr.1-||-8-7---7--------------5-------------------------------||-----10--10-8-7-5-7-8---------------------------------||------------------------------------------------------|
|---------------------------------------------------||-----------------------------------8---------------||-7-5--5-----------------9h10-9---------------gtr.2-||-----8--8-7-5---7-8-10-----------------------------||--------------10-----------------------------------||---------------------------------------------------|
Verse|----------------------------------------------||----------------------------------------------||----------------------------------------------||-0--0-0-0-0-0-0-0-0-0-0-0-0-0-0---------------||-0--0-0-0-0-0-0-0-0-0-0-0-0-0-0---------------||-0--0-0-0-0-0-0-0-0-0-0-0-0-0-0---------------|PM - - - - - - - - - - - - - -
|----------------------------------------------||----------------------------------------------||----------------------------------------------||-3--3-3-3-3-3-3-3-3-3-3-3-3-3-3---------------||-3--3-3-3-3-3-3-3-3-3-3-3-3-3-3---------------||-3--3-3-3-3-3-3-3-3-3-3-3-3-3-3---------------|
PM - - - - - - - - - - - - - - |--------------------------------------------------||--------------------------------------------------||--------------------------------------------------||-5--5-5-5-5-5--6--6-6-6-6--5-6-0------------------||-5--5-5-5-5-5--6--6-6-6-6--5-6-0------------------||-5--5-5-5-5-5--6--6-6-6-6--5-6-0------------------|
PM - - - - - - - - - chrorus thing|-----------------17------------------------------------||----18----17----------15-17p15----17----18----- gtr. 1-||-17----14----14----17----------17----14----------------||-------------------------------------------------------||-------------------------------------------------------||-------------------------------------------------------|
|------------------------------------17----------------||----17----18----17----18----17------------------------||-15----14----15----17----14----14------17------ gtr.1-||---------------------------------------------0--------||---------------------------------------------0--------||---------------------------------------------0--------|
chorus |-------------------------------------------------------||-------------------------------------------------------||-3-----------------------------------------------gtr.2-||-3---3---0--0-0-0-0-0-0-0-0---3--5-5---0----------------||-1---3---0--0-0-0-0-0-0-0-0---3--5-5---0----------------||-----3---0--0-0-0-0-0-0-0-0---3--5-5---0----------------|PM - - - - - - - -
|-------------------------------------------------------||-------------------------------------------------------||-----0-2-0---2-----0-0h2-0----------------------6------||---3-------3-----2----------2---2--s--5-8---7----------||-5-------------3--------------3---3-7-----7---7--------||-------------------------------------------------------|
|----------------------------------------------------------||-6---5---8p5-6p5-6--------1-------------------------------||-------------------------3---3--------------7-------------||---7---7--------------3--------3------5-5h6----6-5p0------||--------------------1---------------0---------------------||----------------------------------6-----------------------|
|---------------------------------------------------------||-----------------------------2---------------------------||-----2-2h3-2-----------2-3---3---------------------gtr.1-||---2---------2---2---2-------0---------------------2-----||-0-------------0---0-------------------------------------||---------------------------------------------------------|
|-------5------5------3-3-5-3-----------------------------||---6-8---8-6--6----5---------5----5----------------------||-7------------7--5--------------5----5/9-----------------||---------------------------------------------------------||---------------------------------------------------------||---------------------------------------------------------|
|---------------9---------------------------------------||-8-11----10---------10----8-10p8---10------------------||-------9-----9---10-----9---------9----10--------------||-------------------------------------------------------||-------------------------------------------------------||-------------------------------------------------------|
|---------8------------------------10---------------------||------11---11-------------9---8h9-----9-8----------------||---10---------10----10------9----------------------------||-8----------------8-----8--------------------------------||---------------------------------------------------------||---------------------------------------------------------|
|-----------------------------------9-----------------------||-----10-10h11-10------------10-11-11-----------------------||---9--------------9---9---9--------------------------gtr.2-||-7------------------7---7----------------------------------||-----------------------------------------------------------||-----------------------------------------------------------|
|------------12--12h13----------------------------------||-13--10-13-----------13--------------------------------||--------------------------12--10-9---------------------||--------------------------14--12-10-------12-----------||-------------------------------------------13----------||-------------------------------------------------------|
|---------h--p--10--10-8------------------------------||-10-10-8-10-8-----------11------14-14/17-------------||-10-10-9-10-9--------------9-10----------------------||-----------------------------------------------------||-----------------------------------------------------||-----------------------------------------------------|
|--------------------------------------------------------||--------------------------------8---8p6-10--------------||---------------------------\7-9---9---------------------||--------------------------------------------------------||-----5--------5--------5--------------------------------||-0-0---5-0-0----6-0-0---7-------------------------------|
|-----------------------------------------------------||-----------------------------------------------------||-----------------------------6h7-6-------------------||-0--0-0-0-0-0-0-0-0-0-0-0-0--------------------------||-0--0-0-0-0-0-0-0-0-0-0-0-0--------------------------||-0--0-0-0-0-0-0-0-0-0-0-0-0--------------------------|PM - - - - - - - - - - - -
|------------------------------------------------------||------------------------------------------------------||------------------------6h7-6-------------------gtr.1-||-8-7---7--------------5-------------------------------||-----10--10-8-7-5-7-8---------------------------------||------------------------------------------------------|
|---------------------------------------------------||---------------------------------------------------||-7-5--5-----------------9h10-9---------------gtr.2-||-----8--8-7-5---7-8-10-----------------------------||--------------10-----------------------------------||---------------------------------------------------|
i don't know the solo but heres that awsome guitar at the end|---------------------------------------------------||---------------------------------------------------||-------------------------------------------|do that until the song ends|-/5--5-5--8--3--3-3--1-1--0-0-0-0-0-0-0-0-0--------||-/5--5-5--8--3--3-3--1-1--0-0-0-0-0-0-0-0-0--------||-/5--5-5--8--3--3-3--1-1--0-0-0-0-0-0-0-0-0--------|PM - - - - - - - - -
Tap to rate this tab
 
# A B C D E F G H I J K L M N O P Q R S T U V W X Y Z