Misc Unsigned Bands – An Endless Sporadic - Sun Of Pearl tab

Band / Artist: An Endless Spordic
Song: Sun of Pearl
Tab by: blindman182
Tuning: Drop D on a 6 String Guitar

/1. = Alt. Ending (1 can be replace with other numbers)
T = Tap
H / P = Hammer on / Pull off
^ = Bend

P H P P|-------------------181713-------------||------15-1817181715------15-----------||----14---------------------14---------| -DONT REPEAT|-15--------------------------1514-12--||--------------------------------------||--------------------------------------|
|-------------------------------------||-------------------------------------||-------------------------------------||-------------------------------------| -REPEAT 2 TIMES|---8-7-8-10-7-8-5---8-7-5---10--8-5--||-00-0-0-0--0-0-0-000-0-0-088--87-----|
|------------------------------------||------------------------------------||------------------------------------||---7-5-7-8--5-7-3---7-5-3-----------||---8-7-8-10-7-8-5---8-7-5---10--8-5-||-00-0-0-0--0-0-0-000-0-0-088--87----|
|---------------------------||---------------------------||---------------------------||---7-5-7-8--5-7-3---7-5-3--||---8-7-8-10-7-8-5---8-7-5--||-00-0-0-0--0-0-0-000-0-0---|
T H T T|----------------------------||----------------------------||-12-57----------------------||------12-58-----------------||------------12-5---7-10-8-7-||-----------------5-8--------|
P P|-13--12-----20-19-17--13--12----------------------------||---------15-------------------15-13--15-13-12-13-12-----||----------------------------------------------------14--||--------------------------------------------------------||--------------------------------------------------------||--------------------------------------------------------|
P|-13--12-----20-19-17--13--12-----20-19-20-19-17---||---------15-------------------15------------------||--------------------------------------------------||--------------------------------------------------||--------------------------------------------------||--------------------------------------------------|
|-13--12-----12-15-13-12-13-||---------15----------------||---------------------------||---------------------------||---------------------------||---------------------------|
|-----------------------------------||--------------------10-------------||----------------12----9-10-9-------||--------12----10------------10-----| - REPEAT 2 TIMES|------12----10---------------------||-12-12-----------------------------|
|------------------------------------------------||--------------------10--------------10----------||----------------12----9-10-9-----------10-9-----||--------12----10------------10-------------10-9-||------12----10----------------------------------||-12-12------------------------------------------|
|------------------------------12-13-12--------||---------------13-12--15----15--------15------||-12^---10----10-----------14------------14----||-----------12---------------------------------||----------------------------------------------||----------------------------------------------|
P|---------------------||---------13-12-13-12-||-10-9----------------||-----12--------------||---------------------||---------------------|
|----------------------------15-19---||-----------15------------18---------||----12-14--------16-17-19-----------||---------------17-------------------||-14---------------------------------||------------------------------------|
|---15-----19-17-15----------------------||-15----------------18-15-17-------------||-----17---------------------17-15-14-15-||----------------------------------------||----------------------------------------||----------------------------------------|
|-10^-10^-10^-10^-10^-12^-12^-12^-12^-12^-13^-13^-13^-13^-13^---||-13^-13^-13^-13^-13^-15^-15^-15^-15^-15^-16^-16^-16^-16^-16^---||---------------------------------------------------------------||---------------------------------------------------------------||---------------------------------------------------------------||---------------------------------------------------------------|
|-----------13-17-----15--------||----------------15-17--13------||------14-15--------------14----||-------------------------------||-13-17-------------------------||-------------------------------|
|------------------------------------------||---18-22--18-20---18-22--18-22--18-22-----||-19-----19------19-----19-----19----------||------------------------------------------||------------------------------------------||------------------------------------------|
|-----20-----19------20-----19------20-||---18-----18------18-----18-----18----||-19-----19------19-----19-----19------||--------------------------------------||--------------------------------------||--------------------------------------|
H P H|-17-20-17--20^-20--18--------17--------||-----------------20--------18----------||---------------------17--19------------||---------------------------------------||---------------------------------------||---------------------------------------|
|-20-17-----17-----------------------------------------||------20-18--20-18--------17--------------------------||------------------19-17-19----19----------------------||----------------------------19------------------------||-------------------------------------12-11-9----------||--------------------------------------------12--------|
|---------------------------- |-------------------------------||---------------------------- |-------------------------------||---------------------10--11- |-------------------------------||-----10--13-----10-----13--- /1.|-----10---13------10-----------||---12--12-----12--12-------- |---12---12------12--13-----12--||-12---------12-------------- |-12-----------12------12-13----|
/2. |-----------------------------------------| |-----------------------------------------| |-----------------------------------------| |-12-10-12-10-12------------11---10-8-----| |----------------13-10-12-9----9------6-8-| |-----------------------------------------|
|------------------------------------------||------------------------------------------||-14-11--13--------------------------------||------12--13-10--13-12---------------10---||---------------11-----12-----------11--11-||------------------------16-14-12-13-------|
|---------------------------------------||---------------------------------------||-----------12---------12----------12---||-12-14-12------14-12----12-14-12-------||---------12--12-----12----------12--12-||---------------------------------------|
|-------------------------------------||-------------------------------------||-------------------------------------||---15-----15--15-----15--15-----15---||-15--15-13--15--15-13--15--15-13--15-||-------------------------------------|
|-------------------------------------||-------------------------------------||-------------------------------------||---17-----17--17-----17--17-----17---||-17--17-15--17--17-15--17--17-15--17-||-------------------------------------|
H P|-------------13-12--------------------------------||----------15-------13--13-------------------------||-------14-----------------15-14-14-15-14-12-------||-12-15--------------------------------------15-14-||--------------------------------------------------||--------------------------------------------------|
|---------------12--------------||------------13----15-13--------||---------14-------------15-14--||---12-15-----------------------||-12----------------------------||-------------------------------|
|--------------------------------------15------||------------------------------------17--18----||---------------14-----------15-17-19----------||---12-14-15-17-----15-17-19-------------------||-12-------------------------------------------||----------------------------------------------|
Find the order of what to do at http://www.myspace.com/anendlesssporadic E-mail me at blindman182@hotmail.com for any questions or comments. Thanks and... PLEASE RATE THIS TAB!!!! It took forever to write down.
Please rate this tab:
x1.0