Misc Unsigned Bands – No Joke - Lies tab

1|--2--------------------------3-----------------------4------|2|----------------3---------------------2---------------------|3|------4-----------------3---------------------2-------------|4|------------------------------------------------------------|5|------------------------------------------------------------|6|------------------------------------------------------------|x2
1|-----p7-0-0-p7-0-0-p7-0-p7-6-8---------|2|---------------------------------------|3|---------------------------------------|4|---------------------------------------|5|---------------------------------------|6|---------------------------------------|x2
6|----------------------------------------|5|----------------------------------------|4|----------00----00-----00---------------|3|------------00----00-----00-------------|2|--------------66----77-----88-----------|1|----------------------------------------|
6|---00--3--00--5--00--3--00--5-----------|5|---00--3--00--5--00--3--00--5-----------|4|---00--3--00--5--00--3--00--5-----------|3|----------------------------------------|2|----------------------------------------|1|----------------------------------------|
6|---00--3--00--5--00--3--00--5--00--3----|5|---00--3--00--5--00--3--00--5--00--3----|4|---00--3--00--5--00--3--00--5--00--3----|3|----------------------------------------|2|----------------------------------------|1|----------------------------------------|
6|---00--3--00--5--00--3--00--------------|5|---00--3--00--5--00--3--00--------------|4|---00--3--00--5--00--3--00--------------|3|----------------------------------------|2|----------------------------------------|1|----------------------------------------|
|------1---0--0--0--0--0------||------0---2--0--0--0--0------||------0---0--1--0--0--0------||------0---0--0--2--0--0------||------0---0--0--0--1--0------||------0---0--0--0--0--2------|x4
end riff
|----------------------------------------||----------------------------------------||----------------------------------------||----------------------------------------||----------------------------------------||----1-3-4-3-1-0-3-3-5-6-3-2-6-----------|
|----------------------------------------||----------------------------------------||----------------------------------------||333333----------------------------------||----------------666666666---------------||------222222222-------------------------|
|----------------------------------------||---------------------4------------------||-------------------4---t4---------------||-----------------4-------h2-------------||----------p4---4-----------0------------||--------h3—t3t6--------------1----------|
|------000000000-------------------------------||------000000000--000000-----------------------||------555555555--000000-----------------------||------000000000--000000-----------------------||-----------------222222-----------------------||----------------------------------------------|x2
|----------------------------------------||----------------------------------------||-----p6-p8-p9--------p6-p8-p9-----------||-------------p6-p8-p9-------------------||----------------------------------------||----------------------------------------|
Please rate this tab:
x1.0