Misc Unsigned Bands – Salute The Lunacy - Finding My Way Home tab

Tuning: drop C#

Intro: tapping done w/ distortion and delay

D#|-----------A#|--2h5p2t9p2 x8F#|-----------|C#|-----------|G#|-----------|C#| ----------|
|------------|--2h5p2t10p2 x8|------------||------------||------------||------------|
|-----------|--2h5p2t9p2 x8|-----------||-----------||-----------||-----------|
|-----------|--2h5p2t8p2 x8|-----------||-----------||-----------||-----------|
|-----------|--2h5p2t9p2 x8|-----------||-----------||-----------||-----------|
|------------|--2h5p2t10p2 x8|------------||------------||------------||------------|
|--------------------|--2h5p2t9p2h5p2t10p2 x5|--------------------||--------------------||--------------------||--------------------|
verse:palm muted
|---------------------------------------------------||---------------------------------------------------||---------------------------------------------------||--0-0-0-0-0-0-1-1-1-1-1-1-2-2-2-2-2-2-3-3-3-3------||--0-0-0-0-0-0-1-1-1-1-1-1-2-2-2-2-2-2-3-3-3-3------||--0-0-0-0-0-0-1-1-1-1-1-1-2-2-2-2-2-2-3-3-3-3~~~~~-|
chorus:palm mute bass notes
|-----------------------------||-----------------------------||-----------------------------||--------------5h7p5\4--------| x4|------4/5h7------------------||-0-0-------------------------|
bridge:
|-----------------------------||-----------------------------||-----------------------------||--0-0-6-0-0-0-4\3------------||--0-0-6-0-0-0-4\3------------| x4|--0-0-6-0-0-0-4\3------------|
outro:
|-------------------------||-----10-------------10---||-----12^------------12^--||-------------------------||-------------------------||-0---------0-0-0---------|
ending:
|--------------------------------------------------||--------------------------------------------------||--------------------------------------------------||------------------------------------------------0-||------------------------------------------------0-||3p0h3p0h3p0h2^ hold till feedback goes insane---0-|
Please rate this tab:
x1.0