Misc Unsigned Bands - Trauma Queen - Mrpen tab

intro) |---------| |--------------|--------------||---------| |--------0h11--|--------0h12--||--12p11--| |--12p11-------|--12p11-------||---------| |--------------|--------------||---------| |--------------|--------------||---------|4x)|--------------|10x)----------|4x)
1/ 2/ 3/ 4/ 5/ 6/|--------|-------|------|------|------|------|------||--------|-0h11--|-0h9--|-0h6--|-0h5--|-0h3--|-0h1--||--12p11-|-------|------|------|------|------|------||--------|-------|------|------|------|------|------||--------|-------|------|------|------|------|------||--------|-------|------|------|------|------|------|
verse)|-------------| |---------------------------------------||-------------| |---------------------------------------||-------------| |---------------------------------------||-3-3-3-3-3-3-| |-0-0-0-8-8-8-8-8-8-8-8-8-8-8-8-8-8-8-8-||-3-3-3-3-3-3-| |-0-0-0-8-8-8-8-8-8-8-8-8-8-8-8-8-8-8-8-||-0-0-0-0-0-0-| |-0-0-0-7-7-7-7-7-7-7-7-6-6-6-6-6-6-6-6-|4x) . . .
|-----------------------------------||-----------------------------------||-----------------------------------||-----------------3-3-3-3-3-3-3-3-3-||-----------------3-3-3-3-3-3-3-3-3-||-0-0-0-0-0-0-0-0-0-0-0-0-0-0-0-0-0-|4x)
|-----------------------------------------------------||-----------------------------------------------------||-----------------------------------------------------||-----------------14-14-14-13-13-13-12-12-12-11-11-11-||-----------------14-14-14-13-13-13-12-12-12-11-11-11-||-0-0-0-0-0-0-0-0-0--0--0--0--0--0--0--0--0--0--0--0--|
|--------------------------------------||--------------------------------------||--------------------------------------||------------------14-13---------------||------------------------14-13-12-11-9-||-0-0-0-0-0-0-0-0----------------------| . . . . . . . .
|--------------------------------------||--------------------------------------||--------------------------------------||------------------12-11---------------||------------------------11-13-12-11-9-||-0-0-0-0-0-0-0-0----------------------| . . . . . . . .
|--------------------------------------------------------||--------------------------------------------------------||-----------------------------12-11----------------------||-3-3-3-------3-3-3-------14--------11-10----------------||-3-3-3-------3-3-3-------14--------------10-8---------0-||-0-0-0-0-0-0-0-0-0-0-0-0-0--------------------9-8-5-3-0-| . . . . . . .
|---------------------------------|-------||---------------------------------|-------||---------------------------------|-------||-8-8-8-8-8-8-8-8-8-8-8-8-8-8-8-8-|-3-3-3-||-8-8-8-8-8-8-8-8-8-8-8-8-8-8-8-8-|-3-3-3-||-7-7-7-7-7-7-7-7-6-6-6-6-6-6-6-6-|-0-0-0-|4x) . . .
|----------------------------------------------------||----------------------------------------------------||-----12-11---------------------12-11----------------||-5---------11-10-----------3---------11-10----------||-5---------------10-8------3---------------10-8-----||-0--------------------9-8--0--------------------9-8-|2x)
|---------------------------------||---------------------------------||---------------------------------||-3-3-------3-3-------3-3-------3-||-3-3-------3-3-------3-3-------3-||-0-0-0-0-0-0-0-0-0-0-0-0-0-0-0-0-| . . . . . . . . .
|------------|------------|----------------------||-------0h11-|-------0h12-|----------------------||-12p11------|-12p11------|-12-11----------------||------------|------------|-------11-10----------||------------|------------|-------------10-8-----||------------|10x)--------|4x)---------------9-8-|4x)
|-------|--------------------------------11-11h12-||-------|---------------------11-10-0-12----------||-12-11-|-12-11-------10-11-0---------------------||-------|-----------------------------------------||-------|-------10-11-----------------------------||-------|40x)-------------------------------------|
|-12-------12-------12-------||----12-------12-------12----||-------12-------12-------12-||----------------------------||----------------------------||----------------------------|
|-15-14----15-14-------------||-------15-------15-14/17-12-||----------------------------||----------------------------||----------------------------||----------------------------|
|----------------------------||----------------------------||-12----12-11~--12-11--------||---------------------12-11--||----------------------------||----------------------------|
|------------------------------------------||------------------------------------------||-12-11------------------------------------||-------11-10--------------------3-3-3-3-3-||-------------10-8---------------3-3-3-3-3-||------------------9-8-5-3-0-0-0-0-0-0-0-0-|
|------------------------------------------||------------------------------------------||------------------------------------------||-------8-8-8-8-8-8-8-8-8-8-8-8-8-8-8-8-8--||-------8-8-8-8-8-8-8-8-8-8-8-8-8-8-8-8-8--||-0-0-0-7-7-7-7-7-7-7-7-7-6-6-6-6-6-6-6-6--|4x) . . .
Tap to rate this tab
 
# A B C D E F G H I J K L M N O P Q R S T U V W X Y Z