Misc Unsigned Bands - Konspiracy - Through Obstruction tab

Konspiracy 
Through Obstruction
Diary (2007)

Tuning: C G C F A D
Timing: 3/4

Intro (Guitar 1)

|---------------------------------------------------------||-6--6-6-6-6-6--6-6-6-6-6--6-6-6-6-6--6-6-6-6-6--6-6-6-6--||-9--9-9-9-9-9--9-9-9-9-9--9-9-9-9-9--9-9-9-9-9--9-9-9-9--||---------------------------------------------------------||---------------------------------------------------------||---------------------------------------------------------|
|-------------------------------------||-6--6-6-6-6-6--6-6-6-6-6--6-6-6-6-6--||-9--9-9-9-9-9--9-9-9-9-9--9-9-9-9-9--||-------------------------------------||-------------------------------------||-------------------------------------|
Verse (Guitar 1)
|---------------------------------------------------------||-6--6-6-6-6-6--6-6-6-6-6--6-6-6-6-6--6-6-6-6-6--6-6-6-6--||-9--9-9-9-9-9--9-9-9-9-9--9-9-9-9-9--9-9-9-9-9--9-9-9-9--||-0--0-0-0-0-0--0-0-0-0-0--0-0-0-0-0--0-0-0-0-8--8-8-8-8--||---------------------------------------------------------||---------------------------------------------------------|
|-------------------------------------||-6--6-6-6-6-6--6-6-6-6-6--6-6-6-6-6--||-9--9-9-9-9-9--9-9-9-9-9--9-9-9-9-9--||-8--8-8-8-8-8--8-8-8-8-8--8-8-8-8-8--||-------------------------------------||-------------------------------------|
|---------------------------------------------------------||-6--6-6-6-6-6--6-6-6-6-6--6-6-6-6-6--6-6-6-6-6--6-6-6-6--||-9--9-9-9-9-9--9-9-9-9-9--9-9-9-9-9--9-9-9-9-9--9-9-9-9--||-0--0-0-0-0-0--0-0-0-0-0--0-0-0-0-0--0-0-0-0-8--8-8-8-8--||---------------------------------------------------------||---------------------------------------------------------|
|-------------------------------------||-6--6-6-6-6-6--6-6-6-6-6--6-6-6-6-6--||-9--9-9-9-9-9--9-9-9-9-9--9-9-9-9-9--||-8--8-8-8-8-8--8-8-8-8-8--8-8-8-8-8--||-------------------------------------||-------------------------------------|
|---------------------------------------------------------||-6--6-6-6-6-6--6-6-6-6-6--6-6-6-6-6--6-6-6-6-6--6-6-6-6--||-9--9-9-9-9-9--9-9-9-9-9--9-9-9-9-9--9-9-9-9-9--9-9-9-9--||-0--0-0-0-0-0--0-0-0-0-0--0-0-0-0-0--0-0-0-0-8--8-8-8-8--||---------------------------------------------------------||---------------------------------------------------------|
|-------------------------------------||-6--6-6-6-6-6--6-6-6-6-6--6-6-6-6-6--||-9--9-9-9-9-9--9-9-9-9-9--9-9-9-9-9--||-8--8-8-8-8-8--8-8-8-8-8--8-8-8-8-8--||-------------------------------------||-------------------------------------|
|---------------------------------------------------------||-6--6-6-6-6-6--6-6-6-6-6--6-6-6-6-6--6-6-6-6-6--6-6-6-6--||-9--9-9-9-9-9--9-9-9-9-9--9-9-9-9-9--9-9-9-9-9--9-9-9-9--||-0--0-0-0-0-0--0-0-0-0-0--0-0-0-0-0--0-0-0-0-8--8-8-8-8--||---------------------------------------------------------||---------------------------------------------------------|
|-------------------------------------||-6--6-6-6-6-6--6-6-6-6-6--6-6-6-6-6--||-9--9-9-9-9-9--9-9-9-9-9--9-9-9-9-9--||-8--8-8-8-8-8--8-8-8-8-8--8-8-8-8-8--||-------------------------------------||-------------------------------------|
Verse (Guitar 2)
|--------------------------------------------------------------||--------------------------------------------------------------||--------------------------------------------------------------||-7--7-7-7-7-7--7-7-7-7-7--7-7-7-7-7--7-7-7-7-10--10-10-10-10--||-0--0-0-0-0-0--0-0-0-0-0--0-0-0-0-0--0-0-0-0-8---8--8--8--8---||-0--0-0-0-0-0--0-0-0-0-0--0-0-0-0-0--0-0-0-0-8---8--8--8--8---|
|-----------------------------------------||-----------------------------------------||-----------------------------------------||10-10-10-10-10--8--8-8-8-8-8--8-8-8-8-8--||-8--8--8--8--8--5--5-5-5-5-5--5-5-5-5-5--||-8--8--8--8--8--5--5-5-5-8-5--5-5-5-5-5--|
|--------------------------------------------------------------||--------------------------------------------------------------||--------------------------------------------------------------||-7--7-7-7-7-7--7-7-7-7-7--7-7-7-7-7--7-7-7-7-10--10-10-10-10--||-0--0-0-0-0-0--0-0-0-0-0--0-0-0-0-0--0-0-0-0-8---8--8--8--8---||-0--0-0-0-0-0--0-0-0-0-0--0-0-0-0-0--0-0-0-0-8---8--8--8--8---|
|-----------------------------------------||-----------------------------------------||-----------------------------------------||10-10-10-10-10--8--8-8-8-8-8--8-8-8-8-8--||-8--8--8--8--8--5--5-5-5-5-5--5-5-5-5-5--||-8--8--8--8--8--5--5-5-5-8-5--5-5-5-5-5--|
|--------------------------------------------------------------||--------------------------------------------------------------||--------------------------------------------------------------||-7--7-7-7-7-7--7-7-7-7-7--7-7-7-7-7--7-7-7-7-10--10-10-10-10--||-0--0-0-0-0-0--0-0-0-0-0--0-0-0-0-0--0-0-0-0-8---8--8--8--8---||-0--0-0-0-0-0--0-0-0-0-0--0-0-0-0-0--0-0-0-0-8---8--8--8--8---|
|-----------------------------------------||-----------------------------------------||-----------------------------------------||10-10-10-10-10--8--8-8-8-8-8--8-8-8-8-8--||-8--8--8--8--8--5--5-5-5-5-5--5-5-5-5-5--||-8--8--8--8--8--5--5-5-5-8-5--5-5-5-5-5--|
|--------------------------------------------------------------||--------------------------------------------------------------||--------------------------------------------------------------||-7--7-7-7-7-7--7-7-7-7-7--7-7-7-7-7--7-7-7-7-10--10-10-10-10--||-0--0-0-0-0-0--0-0-0-0-0--0-0-0-0-0--0-0-0-0-8---8--8--8--8---||-0--0-0-0-0-0--0-0-0-0-0--0-0-0-0-0--0-0-0-0-8---8--8--8--8---|
|-----------------------------------------||-----------------------------------------||-----------------------------------------||10-10-10-10-10--8--8-8-8-8-8--8-8-8-8-8--||-8--8--8--8--8--5--5-5-5-5-5--5-5-5-5-5--||-8--8--8--8--8--5--5-5-5-8-5--5-5-5-5-5--|
Pre-Chorus (Guitar 1)
|--------------------------------------------------------||--------------------------------------------------------||-----------10-10-10-10-10-10---------------9-9-9-9-9-9--||-8-8--8-8-x--x--x--x--x--x--x--8-8--8-8-x--x-x-x-x-x-x--||-8-8--8-8-x--8--8--8--8--8--8--8-8--8-8-x--7-7-7-7-7-7--||-8-8--8-8-x--------------------8-8--8-8-x---------------|
|-------------------------------------------||-------------------------------------------||-------------7-7-7-7-7-7----7---9--9/10-9--||-0-0--0-0-x--x-x-x-x-x-x-x--x---x--x-x--x--||-0-0--0-0-x--5-5-5-5-5-5-x--5---7--7/8--7--||-0-0--0-0-x--------------x-----------------|
|--------------------------------------------------------||--------------------------------------------------------||-----------10-10-10-10-10-10---------------9-9-9-9-9-9--||-8-8--8-8-x--x--x--x--x--x--x--8-8--8-8-x--x-x-x-x-x-x--||-8-8--8-8-x--8--8--8--8--8--8--8-8--8-8-x--7-7-7-7-7-7--||-8-8--8-8-x--------------------8-8--8-8-x---------------|
|------------------------------------------||------------------------------------------||-------------7-7-7-7-7-7----7---5--2/3-2--||-0-0--0-0-x--x-x-x-x-x-x-x--x---x--x-x-x--||-0-0--0-0-x--5-5-5-5-5-5-x--5---3--0/1-0--||-0-0--0-0-x--------------x----------------|
|--------------------------------------------------------||--------------------------------------------------------||-----------10-10-10-10-10-10---------------9-9-9-9-9-9--||-8-8--8-8-x--x--x--x--x--x--x--8-8--8-8-x--x-x-x-x-x-x--||-8-8--8-8-x--8--8--8--8--8--8--8-8--8-8-x--7-7-7-7-7-7--||-8-8--8-8-x--------------------8-8--8-8-x---------------|
|-------------------------------------------||-------------------------------------------||-------------7-7-7-7-7-7----7---9--9/10-9--||-0-0--0-0-x--x-x-x-x-x-x-x--x---x--x-x--x--||-0-0--0-0-x--5-5-5-5-5-5-x--5---7--7/8--7--||-0-0--0-0-x--------------x-----------------|
|--------------------------------------------------------||--------------------------------------------------------||-----------10-10-10-10-10-10---------------9-9-9-9-9-9--||-8-8--8-8-x--x--x--x--x--x--x--8-8--8-8-x--x-x-x-x-x-x--||-8-8--8-8-x--8--8--8--8--8--8--8-8--8-8-x--7-7-7-7-7-7--||-8-8--8-8-x--------------------8-8--8-8-x---------------|
|-------------------------------------------||-------------------------------------------||-------------7-7-7-7-7-7----7---9--9/10-9--||-0-0--0-0-x--x-x-x-x-x-x-x--x---x--x-x--x--||-0-0--0-0-x--5-5-5-5-5-5-x--5---7--7/8--7--||-0-0--0-0-x--------------x-----------------|
Pre-Chorus (Guitar 2)
|-------------------------------------------------------------------||-------------------------------------------------------------------||-------------------------------------------------------------------||-8-8--8-8----x--8-8--8-x-5~------0-0--0-0---------2-2h3-----2-2h3--||-8-8--8-8----x--8-8--8-x-5~~-----0-0--0-0---------------0h3--------||-8-8--8-8----x--8-8--8-x-5~~-----0-0--0-0-----0h3------------------|
* * * *|--------------------------------------------------------||--------------------------------------------------------||-----------10-10-10-10-10-10---------------9-9-9-9-9-9--||-8-8--8-8-x--x--x--x--x--x--x--8-8--8-8-x--x-x-x-x-x-x--||-8-8--8-8-x--8--8--8--8--8--8--8-8--8-8-x--7-7-7-7-7-7--||-8-8--8-8-x--------------------8-8--8-8-x---------------|
|-------------------------------------------||-------------------------------------------||-------------7-7-7-7-7-7----7---9--9/10-9--||-0-0--0-0-x--x-x-x-x-x-x-x--x---x--x-x--x--||-0-0--0-0-x--5-5-5-5-5-5-x--5---7--7/8--7--||-0-0--0-0-x--------------x-----------------|
|---------------------------------------------------------------||---------------------------------------------------------------||------------14-14-14-14-14-14---------------12-12-12-12-12-12--||-8-8--8-8-x--x--x--x--x--x--x---8-8--8-8-x--x--x--x--x--x--x---||-8-8--8-8-x--12-12-12-12-12-12--8-8--8-8-x--10-10-10-10-10-10--||-8-8--8-8-x---------------------8-8--8-8-x---------------------|
|--------------------------------------------------||--------------------------------------------------||-------------10-10-10-10-10-10--10--12--12/14-12--||-0-0--0-0-x--x--x--x--x--x--x-x--x---x---x--x--x--||-0-0--0-0-x--8--8--8--8--8--8-x--8--10--10/12-10--||-0-0--0-0-x-------------------x-------------------|
Chorus (Guitar 1)
|--------------------------------------------------------||--------------------------------------------------------||--------------------------------------------------------||-10--10-10-10-10-10-10-10-10-10--8---8-8-8-8-8--8-8-8-8-||-8---8--8--8--8--8---8--8--8--8--5---5-5-5-5-5--5-5-5-5-||-8---8--8--8--8--8---8--8--8--8--5---5-5-5-5-5--5-5-5-5-|
|---------------------------------------------||---------------------------------------------||---------------------------------------------||-7--7-7-7-7-7--7-7-7-7-7--7-7-7-7-7--7-7-7-7-||-0--0-0-0-0-0--0-0-0-0-0--0-0-0-0-0--0-0-0-0-||-0--0-0-0-0-0--0-0-0-0-0--0-0-0-0-0--0-0-0-0-|
|--------------------------------------------------------||--------------------------------------------------------||--------------------------------------------------------||-10--10-10-10-10-10-10-10-10-10--8---8-8-8-8-8--8-8-8-8-||-8---8--8--8--8--8---8--8--8--8--5---5-5-5-5-5--5-5-5-5-||-8---8--8--8--8--8---8--8--8--8--5---5-5-5-5-5--5-5-5-5-|
|---------------------------------------------||---------------------------------------------||---------------------------------------------||-7--7-7-7-7-7--7-7-7-7-7--7-7-7-7-7--7-7-7-7-||-0--0-0-0-0-0--0-0-0-0-0--0-0-0-0-0--0-0-0-0-||-0--0-0-0-0-0--0-0-0-0-0--0-0-0-0-0--0-0-0-0-|
|-------------------------------------------||-------------------------------------------||-------------------------------------------||-10--10--10--10-10-------8---8---8---8--8--||-8---8---8---8--8--------5---5---5---5--5--||-8---8---8---8--8--------5---5---5---5--5--|
|---------------------------------------------||---------------------------------------------||---------------------------------------------||-7---7---7---7--7--------7---7---7---7--7p0--||-0---0---0---0--0--------0---0---0---0--0-0--||-0---0---0---0--0--------0---0---0---0--0-0--|
|-------------------------------------------||-------------------------------------------||-------------------------------------------||-10--10--10--10-10-------8---8---8---8--8--||-8---8---8---8--8--------5---5---5---5--5--||-8---8---8---8--8--------5---5---5---5--5--|
|---------------------------------------------||---------------------------------------------||---------------------------------------------||-7---7---7---7--7--------7---7---7---7--7p0--||-0---0---0---0--0--------0---0---0---0--0-0--||-0---0---0---0--0--------0---0---0---0--0-0--|
Chorus (Guitar 2)|-----------------------------------------------------------||-----------------------------------------------------------||-----------------------------------------------------------||-10-10-10-8-8-8-7-7-8-8-0-0--10-10-10-8-8-8-7-7-8-7h8p7----||--------------------------------------------------------8--||-----------------------------------------------------------| * * * * * * * * * * * * * * * * * * * *
|-----------------------------------------------------------||-----------------------------------------------------------||-----------------------------------------------------------||-10-10-10-8-8-8-7-7-8-8-0-0--10-10-10-8-8-8-7-7-8-7h8p7----||--------------------------------------------------------8--||-----------------------------------------------------------| * * * * * * * * * * * * * * * * * * * *
|----------------------------------------------------||----------------------------------------------------||-10-------10---10-------10---10-------10---10-------||----8p7h8----8----8p7h8----8----8p7h8----8----8p7h8-||----------------------------------------------------||----------------------------------------------------| * * * * * * * * * * * * * * *
|-------------------------------------------------------------------||-------------------------------------------------------------------||-10---10---10-------10---10-------10---10-------10--12-12p.h.~~~/--||----8---------8p7h8----8----8p7h8----8----8p7h8----8---------------||-------------------------------------------------------------------||-------------------------------------------------------------------| * * * * * * * * * * * * * * *
|----------------------------------------------------||----------------------------------------------------||-10-------10---10-------10---10-----9-----7-9-10-9--||----8p7h8----8----8p7h8----8----8-8---8-8-----------||----------------------------------------------------||----------------------------------------------------| * * * * * * * * * * * *
Pre-Verse (Guitar 1)
|---------------------------------------------------------||-6--6-6-6-6-6--6-6-6-6-6--6-6-6-6-6--6-6-6-6-6--6-6-6-6--||-9--9-9-9-9-9--9-9-9-9-9--9-9-9-9-9--9-9-9-9-9--9-9-9-9--||-0--0-0-0-0-0--0-0-0-0-0--0-0-0-0-0--0-0-0-0-0--0-0-0-0--||---------------------------------------------------------||---------------------------------------------------------|
|-------------------------------------||-6--6-6-6-6-6--6-6-6-6-6--6-6-6-6-6--||-9--9-9-9-9-9--9-9-9-9-9--9-9-9-9-9--||-0--0-0-0-0-0--0-0-0-0-0--0-0-0-0-0--||-------------------------------------||-------------------------------------|
|---------------------------------------------------------||-6--6-6-6-6-6--6-6-6-6-6--6-6-6-6-6--6-6-6-6-6--6-6-6-6--||-9--9-9-9-9-9--9-9-9-9-9--9-9-9-9-9--9-9-9-9-9--9-9-9-9--||-0--0-0-0-0-0--0-0-0-0-0--0-0-0-0-0--0-0-0-0-0--0-0-0-0--||---------------------------------------------------------||---------------------------------------------------------|
|-------------------------------------||-6--6-6-6-6-6--6-6-6-6-6--6-6-6-6-6--||-9--9-9-9-9-9--9-9-9-9-9--9-9-9-9-9--||-0--0-0-0-0-0--0-0-0-0-0--0-0-0-0-0--||-------------------------------------||-------------------------------------|
Pre-Verse (Guitar 2)
|---------------------------||---------------------------||---------------------------||-0~~~~---------------------||-0~~~~---------------------||-0~~~~---------------------|
Verse (Guitar 1)|---------------------------------------------------------||-6--6-6-6-6-6--6-6-6-6-6--6-6-6-6-6--6-6-6-6-6--6-6-6-6--||-9--9-9-9-9-9--9-9-9-9-9--9-9-9-9-9--9-9-9-9-9--9-9-9-9--||-0--0-0-0-0-0--0-0-0-0-0--0-0-0-0-0--0-0-0-0-8--8-8-8-8--||---------------------------------------------------------||---------------------------------------------------------|
|-------------------------------------||-6--6-6-6-6-6--6-6-6-6-6--6-6-6-6-6--||-9--9-9-9-9-9--9-9-9-9-9--9-9-9-9-9--||-8--8-8-8-8-8--8-8-8-8-8--8-8-8-8-8--||-------------------------------------||-------------------------------------|
|---------------------------------------------------------||-6--6-6-6-6-6--6-6-6-6-6--6-6-6-6-6--6-6-6-6-6--6-6-6-6--||-9--9-9-9-9-9--9-9-9-9-9--9-9-9-9-9--9-9-9-9-9--9-9-9-9--||-0--0-0-0-0-0--0-0-0-0-0--0-0-0-0-0--0-0-0-0-8--8-8-8-8--||---------------------------------------------------------||---------------------------------------------------------|
|-------------------------------------||-6--6-6-6-6-6--6-6-6-6-6--6-6-6-6-6--||-9--9-9-9-9-9--9-9-9-9-9--9-9-9-9-9--||-8--8-8-8-8-8--8-8-8-8-8--8-8-8-8-8--||-------------------------------------||-------------------------------------|
|---------------------------------------------------------||-6--6-6-6-6-6--6-6-6-6-6--6-6-6-6-6--6-6-6-6-6--6-6-6-6--||-9--9-9-9-9-9--9-9-9-9-9--9-9-9-9-9--9-9-9-9-9--9-9-9-9--||-0--0-0-0-0-0--0-0-0-0-0--0-0-0-0-0--0-0-0-0-8--8-8-8-8--||---------------------------------------------------------||---------------------------------------------------------|
|-------------------------------------||-6--6-6-6-6-6--6-6-6-6-6--6-6-6-6-6--||-9--9-9-9-9-9--9-9-9-9-9--9-9-9-9-9--||-8--8-8-8-8-8--8-8-8-8-8--8-8-8-8-8--||-------------------------------------||-------------------------------------|
|---------------------------------------------------------||-6--6-6-6-6-6--6-6-6-6-6--6-6-6-6-6--6-6-6-6-6--6-6-6-6--||-9--9-9-9-9-9--9-9-9-9-9--9-9-9-9-9--9-9-9-9-9--9-9-9-9--||-0--0-0-0-0-0--0-0-0-0-0--0-0-0-0-0--0-0-0-0-8--8-8-8-8--||---------------------------------------------------------||---------------------------------------------------------|
|-------------------------------------||-6--6-6-6-6-6--6-6-6-6-6--6-6-6-6-6--||-9--9-9-9-9-9--9-9-9-9-9--9-9-9-9-9--||-8--8-8-8-8-8--8-8-8-8-8--8-8-8-8-8--||-------------------------------------||-------------------------------------|
Verse (Guitar 2)
|--------------------------------------------------------------||--------------------------------------------------------------||--------------------------------------------------------------||-7--7-7-7-7-7--7-7-7-7-7--7-7-7-7-7--7-7-7-7-10--10-10-10-10--||-0--0-0-0-0-0--0-0-0-0-0--0-0-0-0-0--0-0-0-0-8---8--8--8--8---||-0--0-0-0-0-0--0-0-0-0-0--0-0-0-0-0--0-0-0-0-8---8--8--8--8---|
|-----------------------------------------||-----------------------------------------||-----------------------------------------||10-10-10-10-10--8--8-8-8-8-8--8-8-8-8-8--||-8--8--8--8--8--5--5-5-5-5-5--5-5-5-5-5--||-8--8--8--8--8--5--5-5-5-8-5--5-5-5-5-5--|
|--------------------------------------------------------------||--------------------------------------------------------------||--------------------------------------------------------------||-7--7-7-7-7-7--7-7-7-7-7--7-7-7-7-7--7-7-7-7-10--10-10-10-10--||-0--0-0-0-0-0--0-0-0-0-0--0-0-0-0-0--0-0-0-0-8---8--8--8--8---||-0--0-0-0-0-0--0-0-0-0-0--0-0-0-0-0--0-0-0-0-8---8--8--8--8---|
|-----------------------------------------||-----------------------------------------||-----------------------------------------||10-10-10-10-10--8--8-8-8-8-8--8-8-8-8-8--||-8--8--8--8--8--5--5-5-5-5-5--5-5-5-5-5--||-8--8--8--8--8--5--5-5-5-8-5--5-5-5-5-5--|
|--------------------------------------------------------------||--------------------------------------------------------------||--------------------------------------------------------------||-7--7-7-7-7-7--7-7-7-7-7--7-7-7-7-7--7-7-7-7-10--10-10-10-10--||-0--0-0-0-0-0--0-0-0-0-0--0-0-0-0-0--0-0-0-0-8---8--8--8--8---||-0--0-0-0-0-0--0-0-0-0-0--0-0-0-0-0--0-0-0-0-8---8--8--8--8---|
|-----------------------------------------||-----------------------------------------||-----------------------------------------||10-10-10-10-10--8--8-8-8-8-8--8-8-8-8-8--||-8--8--8--8--8--5--5-5-5-5-5--5-5-5-5-5--||-8--8--8--8--8--5--5-5-5-8-5--5-5-5-5-5--|
|--------------------------------------------------------------||--------------------------------------------------------------||--------------------------------------------------------------||-7--7-7-7-7-7--7-7-7-7-7--7-7-7-7-7--7-7-7-7-10--10-10-10-10--||-0--0-0-0-0-0--0-0-0-0-0--0-0-0-0-0--0-0-0-0-8---8--8--8--8---||-0--0-0-0-0-0--0-0-0-0-0--0-0-0-0-0--0-0-0-0-8---8--8--8--8---|
|-----------------------------------------||-----------------------------------------||-----------------------------------------||10-10-10-10-10--8--8-8-8-8-8--8-8-8-8-8--||-8--8--8--8--8--5--5-5-5-5-5--5-5-5-5-5--||-8--8--8--8--8--5--5-5-5-8-5--5-5-5-5-5--|
Pre-Chorus (Guitar 1)
|--------------------------------------------------------||--------------------------------------------------------||-----------10-10-10-10-10-10---------------9-9-9-9-9-9--||-8-8--8-8-x--x--x--x--x--x--x--8-8--8-8-x--x-x-x-x-x-x--||-8-8--8-8-x--8--8--8--8--8--8--8-8--8-8-x--7-7-7-7-7-7--||-8-8--8-8-x--------------------8-8--8-8-x---------------|
|-------------------------------------------||-------------------------------------------||-------------7-7-7-7-7-7----7---9--9/10-9--||-0-0--0-0-x--x-x-x-x-x-x-x--x---x--x-x--x--||-0-0--0-0-x--5-5-5-5-5-5-x--5---7--7/8--7--||-0-0--0-0-x--------------x-----------------|
|--------------------------------------------------------||--------------------------------------------------------||-----------10-10-10-10-10-10---------------9-9-9-9-9-9--||-8-8--8-8-x--x--x--x--x--x--x--8-8--8-8-x--x-x-x-x-x-x--||-8-8--8-8-x--8--8--8--8--8--8--8-8--8-8-x--7-7-7-7-7-7--||-8-8--8-8-x--------------------8-8--8-8-x---------------|
|------------------------------------------||------------------------------------------||-------------7-7-7-7-7-7----7---5--2/3-2--||-0-0--0-0-x--x-x-x-x-x-x-x--x---x--x-x-x--||-0-0--0-0-x--5-5-5-5-5-5-x--5---3--0/1-0--||-0-0--0-0-x--------------x----------------|
|--------------------------------------------------------||--------------------------------------------------------||-----------10-10-10-10-10-10---------------9-9-9-9-9-9--||-8-8--8-8-x--x--x--x--x--x--x--8-8--8-8-x--x-x-x-x-x-x--||-8-8--8-8-x--8--8--8--8--8--8--8-8--8-8-x--7-7-7-7-7-7--||-8-8--8-8-x--------------------8-8--8-8-x---------------|
|-------------------------------------------||-------------------------------------------||-------------7-7-7-7-7-7----7---9--9/10-9--||-0-0--0-0-x--x-x-x-x-x-x-x--x---x--x-x--x--||-0-0--0-0-x--5-5-5-5-5-5-x--5---7--7/8--7--||-0-0--0-0-x--------------x-----------------|
|--------------------------------------------------------||--------------------------------------------------------||-----------10-10-10-10-10-10---------------9-9-9-9-9-9--||-8-8--8-8-x--x--x--x--x--x--x--8-8--8-8-x--x-x-x-x-x-x--||-8-8--8-8-x--8--8--8--8--8--8--8-8--8-8-x--7-7-7-7-7-7--||-8-8--8-8-x--------------------8-8--8-8-x---------------|
|-------------------------------------------||-------------------------------------------||-------------7-7-7-7-7-7----7---9--9/10-9--||-0-0--0-0-x--x-x-x-x-x-x-x--x---x--x-x--x--||-0-0--0-0-x--5-5-5-5-5-5-x--5---7--7/8--7--||-0-0--0-0-x--------------x-----------------|
Pre-Chorus (Guitar 2)
|-------------------------------------------------------------------||-------------------------------------------------------------------||-------------------------------------------------------------------||-8-8--8-8----x--8-8--8-x-5~------0-0--0-0---------2-2h3-----2-2h3--||-8-8--8-8----x--8-8--8-x-5~~-----0-0--0-0---------------0h3--------||-8-8--8-8----x--8-8--8-x-5~~-----0-0--0-0-----0h3------------------|
* * * *|--------------------------------------------------------||--------------------------------------------------------||-----------10-10-10-10-10-10---------------9-9-9-9-9-9--||-8-8--8-8-x--x--x--x--x--x--x--8-8--8-8-x--x-x-x-x-x-x--||-8-8--8-8-x--8--8--8--8--8--8--8-8--8-8-x--7-7-7-7-7-7--||-8-8--8-8-x--------------------8-8--8-8-x---------------|
|-------------------------------------------||-------------------------------------------||-------------7-7-7-7-7-7----7---9--9/10-9--||-0-0--0-0-x--x-x-x-x-x-x-x--x---x--x-x--x--||-0-0--0-0-x--5-5-5-5-5-5-x--5---7--7/8--7--||-0-0--0-0-x--------------x-----------------|
|---------------------------------------------------------------||---------------------------------------------------------------||------------14-14-14-14-14-14---------------12-12-12-12-12-12--||-8-8--8-8-x--x--x--x--x--x--x---8-8--8-8-x--x--x--x--x--x--x---||-8-8--8-8-x--12-12-12-12-12-12--8-8--8-8-x--10-10-10-10-10-10--||-8-8--8-8-x---------------------8-8--8-8-x---------------------|
|--------------------------------------------------||--------------------------------------------------||-------------10-10-10-10-10-10--10--12--12/14-12--||-0-0--0-0-x--x--x--x--x--x--x-x--x---x---x--x--x--||-0-0--0-0-x--8--8--8--8--8--8-x--8--10--10/12-10--||-0-0--0-0-x-------------------x-------------------|
Chorus (Guitar 1)
|--------------------------------------------------------||--------------------------------------------------------||--------------------------------------------------------||-10--10-10-10-10-10-10-10-10-10--8---8-8-8-8-8--8-8-8-8-||-8---8--8--8--8--8---8--8--8--8--5---5-5-5-5-5--5-5-5-5-||-8---8--8--8--8--8---8--8--8--8--5---5-5-5-5-5--5-5-5-5-|
|---------------------------------------------||---------------------------------------------||---------------------------------------------||-7--7-7-7-7-7--7-7-7-7-7--7-7-7-7-7--7-7-7-7-||-0--0-0-0-0-0--0-0-0-0-0--0-0-0-0-0--0-0-0-0-||-0--0-0-0-0-0--0-0-0-0-0--0-0-0-0-0--0-0-0-0-|
|--------------------------------------------------------||--------------------------------------------------------||--------------------------------------------------------||-10--10-10-10-10-10-10-10-10-10--8---8-8-8-8-8--8-8-8-8-||-8---8--8--8--8--8---8--8--8--8--5---5-5-5-5-5--5-5-5-5-||-8---8--8--8--8--8---8--8--8--8--5---5-5-5-5-5--5-5-5-5-|
|---------------------------------------------||---------------------------------------------||---------------------------------------------||-7--7-7-7-7-7--7-7-7-7-7--7-7-7-7-7--7-7-7-7-||-0--0-0-0-0-0--0-0-0-0-0--0-0-0-0-0--0-0-0-0-||-0--0-0-0-0-0--0-0-0-0-0--0-0-0-0-0--0-0-0-0-|
|-------------------------------------------||-------------------------------------------||-------------------------------------------||-10--10--10--10-10-------8---8---8---8--8--||-8---8---8---8--8--------5---5---5---5--5--||-8---8---8---8--8--------5---5---5---5--5--|
|---------------------------------------------||---------------------------------------------||---------------------------------------------||-7---7---7---7--7--------7---7---7---7--7p0--||-0---0---0---0--0--------0---0---0---0--0-0--||-0---0---0---0--0--------0---0---0---0--0-0--|
|-------------------------------------------||-------------------------------------------||-------------------------------------------||-10--10--10--10-10-------8---8---8---8--8--||-8---8---8---8--8--------5---5---5---5--5--||-8---8---8---8--8--------5---5---5---5--5--|
|---------------------------------------------||---------------------------------------------||---------------------------------------------||-7---7---7---7--7--------7---7---7---7--7p0--||-0---0---0---0--0--------0---0---0---0--0-0--||-0---0---0---0--0--------0---0---0---0--0-0--|
Chorus (Guitar 2)|-----------------------------------------------------------||-----------------------------------------------------------||-----------------------------------------------------------||-10-10-10-8-8-8-7-7-8-8-0-0--10-10-10-8-8-8-7-7-8-7h8p7----||--------------------------------------------------------8--||-----------------------------------------------------------| * * * * * * * * * * * * * * * * * * * *
|-----------------------------------------------------------||-----------------------------------------------------------||-----------------------------------------------------------||-10-10-10-8-8-8-7-7-8-8-0-0--10-10-10-8-8-8-7-7-8-7h8p7----||--------------------------------------------------------8--||-----------------------------------------------------------| * * * * * * * * * * * * * * * * * * * *
|----------------------------------------------------||----------------------------------------------------||-10-------10---10-------10---10-------10---10-------||----8p7h8----8----8p7h8----8----8p7h8----8----8p7h8-||----------------------------------------------------||----------------------------------------------------| * * * * * * * * * * * * * * *
|-------------------------------------------------------------------||-------------------------------------------------------------------||-10---10---10-------10---10-------10---10-------10--12-12p.h.~~~/--||----8---------8p7h8----8----8p7h8----8----8p7h8----8---------------||-------------------------------------------------------------------||-------------------------------------------------------------------| * * * * * * * * * * * * * * *
|----------------------------------------------------||----------------------------------------------------||-10-------10---10-------10---10-----9-----7-9-10-9--||----8p7h8----8----8p7h8----8----8-8---8-8-----------||----------------------------------------------------||----------------------------------------------------| * * * * * * * * * * * *
Breakdown (Guitar 1)
|-------------------------------------------||-------------------------------------------||-------------------------------------------||-0--0--0--0--0--0--0--0--0--0--0--0--0--0--||-0--0--0--0--0--0--0--0--0--0--0--0--0--0--||-0--0--0--0--0--0--0--0--0--0--0--0--0--0--| * * * * * * * * * * * * * *
|-------------------------------------------||-------------------------------------------||-------------------------------------------||-0--0--0--0--0--0--8--8--8--8--5--5--5--5--||-0--0--0--0--0--0--8--8--8--8--5--5--5--5--||-0--0--0--0--0--0--8--8--8--8--5--5--5--5--| * * * * * * * * * * * * * *
|-------------------------------------------||-------------------------------------------||-------------------------------------------||-0--0--0--0--0--0--0--0--0--0--0--0--0--0--||-0--0--0--0--0--0--0--0--0--0--0--0--0--0--||-0--0--0--0--0--0--0--0--0--0--0--0--0--0--| * * * * * * * * * * * * * *
|-------------------------------------------||-------------------------------------------||-------------------------------------------||-0--0--0--0--0--0--8--8--8--8--5--5--5--5--||-0--0--0--0--0--0--8--8--8--8--5--5--5--5--||-0--0--0--0--0--0--8--8--8--8--5--5--5--5--| * * * * * * * * * * * * * *
|-------------------------------------------||-------------------------------------------||-------------------------------------------||-0--0--0--0--0--0--0--0--0--0--0--0--0--0--||-0--0--0--0--0--0--0--0--0--0--0--0--0--0--||-0--0--0--0--0--0--0--0--0--0--0--0--0--0--| * * * * * * * * * * * * * *
|-------------------------------------------||-------------------------------------------||-------------------------------------------||-0--0--0--0--0--0--8--8--8--8--5--5--5--5--||-0--0--0--0--0--0--8--8--8--8--5--5--5--5--||-0--0--0--0--0--0--8--8--8--8--5--5--5--5--| * * * * * * * * * * * * * *
|-------------------------------------------||-------------------------------------------||-------------------------------------------||-0--0--0--0--0--0--0--0--0--0--0--0--0--0--||-0--0--0--0--0--0--0--0--0--0--0--0--0--0--||-0--0--0--0--0--0--0--0--0--0--0--0--0--0--| * * * * * * * * * * * * * *
|-------------------------------------------||-------------------------------------------||-------------------------------------------||-0--0--0--0--0--0--8--8--8--8--5--5--5--5--||-0--0--0--0--0--0--8--8--8--8--5--5--5--5--||-0--0--0--0--0--0--8--8--8--8--5--5--5--5--| * * * * * * * * * * * * * *
|-------------------------------------------||-------------------------------------------||-------------------------------------------||-0--0--0--0--0--0--0--0--0--0--0--0--0--0--||-0--0--0--0--0--0--0--0--0--0--0--0--0--0--||-0--0--0--0--0--0--0--0--0--0--0--0--0--0--| * * * * * * * * * * * * * *
|-------------------------------------------||-------------------------------------------||-------------------------------------------||-0--0--0--0--0--0--8--8--8--8--5--5--5--5--||-0--0--0--0--0--0--8--8--8--8--5--5--5--5--||-0--0--0--0--0--0--8--8--8--8--5--5--5--5--| * * * * * * * * * * * * * *
Breakdown (Guitar 2) (Comes in on second measure)
|------------------------------------------------------||------------------------------------------------------||------------------------------------------------------||--------------7-7-7-7-7-7----------------5-5-5-5-5-5--||-0--0--0--0---8-8-8-8-8-8--0--0--0--0----7-7-7-7-7-7--||-0--0--0--0----------------0--0--0--0-----------------| * * * * * * * *
|----------------------------------------------------------||----------------------------------------------------------||----------------------------------------------------------||--------------7-7-7-7-7-7----10------8-----7----8----7p0--||-0--0--0--0---8-8-8-8-8-8----12-----10-----8---10----8p0--||-0--0--0--0----------------0----0-0----0-0---0-----0------| * * * * * * * * * * *
|------------------------------------------------------||------------------------------------------------------||------------------------------------------------------||--------------7-7-7-7-7-7----------------5-5-5-5-5-5--||-0--0--0--0---8-8-8-8-8-8--0--0--0--0----7-7-7-7-7-7--||-0--0--0--0----------------0--0--0--0-----------------| * * * * * * * *
|----------------------------------------------------------||----------------------------------------------------------||----------------------------------------------------------||--------------7-7-7-7-7-7----10------8-----7----8----7p0--||-0--0--0--0---8-8-8-8-8-8----12-----10-----8---10----8p0--||-0--0--0--0----------------0----0-0----0-0---0-----0------| * * * * * * * * * * *
|------------------------------------------------------||------------------------------------------------------||------------------------------------------------------||--------------7-7-7-7-7-7----------------5-5-5-5-5-5--||-0--0--0--0---8-8-8-8-8-8--0--0--0--0----7-7-7-7-7-7--||-0--0--0--0----------------0--0--0--0-----------------| * * * * * * * *
|----------------------------------------------------------||----------------------------------------------------------||----------------------------------------------------------||--------------7-7-7-7-7-7----10------8-----7----8----7p0--||-0--0--0--0---8-8-8-8-8-8----12-----10-----8---10----8p0--||-0--0--0--0----------------0----0-0----0-0---0-----0------| * * * * * * * * * * *
|------------------------------------------------------||------------------------------------------------------||------------------------------------------------------||--------------7-7-7-7-7-7----------------5-5-5-5-5-5--||-0--0--0--0---8-8-8-8-8-8--0--0--0--0----7-7-7-7-7-7--||-0--0--0--0----------------0--0--0--0-----------------| * * * * * * * *
|----------------------------------------------------------||----------------------------------------------------------||----------------------------------------------------------||--------------7-7-7-7-7-7----10------8-----7----8----7p0--||-0--0--0--0---8-8-8-8-8-8----12-----10-----8---10----8p0--||-0--0--0--0----------------0----0-0----0-0---0-----0------| * * * * * * * * * * *
Chorus (Guitar 1)
|--------------------------------------------------------||--------------------------------------------------------||--------------------------------------------------------||-10--10-10-10-10-10-10-10-10-10--8---8-8-8-8-8--8-8-8-8-||-8---8--8--8--8--8---8--8--8--8--5---5-5-5-5-5--5-5-5-5-||-8---8--8--8--8--8---8--8--8--8--5---5-5-5-5-5--5-5-5-5-|
|---------------------------------------------||---------------------------------------------||---------------------------------------------||-7--7-7-7-7-7--7-7-7-7-7--7-7-7-7-7--7-7-7-7-||-0--0-0-0-0-0--0-0-0-0-0--0-0-0-0-0--0-0-0-0-||-0--0-0-0-0-0--0-0-0-0-0--0-0-0-0-0--0-0-0-0-|
|--------------------------------------------------------||--------------------------------------------------------||--------------------------------------------------------||-10--10-10-10-10-10-10-10-10-10--8---8-8-8-8-8--8-8-8-8-||-8---8--8--8--8--8---8--8--8--8--5---5-5-5-5-5--5-5-5-5-||-8---8--8--8--8--8---8--8--8--8--5---5-5-5-5-5--5-5-5-5-|
|---------------------------------------------||---------------------------------------------||---------------------------------------------||-7--7-7-7-7-7--7-7-7-7-7--7-7-7-7-7--7-7-7-7-||-0--0-0-0-0-0--0-0-0-0-0--0-0-0-0-0--0-0-0-0-||-0--0-0-0-0-0--0-0-0-0-0--0-0-0-0-0--0-0-0-0-|
|-------------------------------------------||-------------------------------------------||-------------------------------------------||-10--10--10--10-10-------8---8---8---8--8--||-8---8---8---8--8--------5---5---5---5--5--||-8---8---8---8--8--------5---5---5---5--5--|
|---------------------------------------------||---------------------------------------------||---------------------------------------------||-7---7---7---7--7--------7---7---7---7--7p0--||-0---0---0---0--0--------0---0---0---0--0-0--||-0---0---0---0--0--------0---0---0---0--0-0--|
|-------------------------------------------||-------------------------------------------||-------------------------------------------||-10--10--10--10-10-------8---8---8---8--8--||-8---8---8---8--8--------5---5---5---5--5--||-8---8---8---8--8--------5---5---5---5--5--|
|---------------------------------------------||---------------------------------------------||---------------------------------------------||-7---7---7---7--7--------7---7---7---7--7p0--||-0---0---0---0--0--------0---0---0---0--0-0--||-0---0---0---0--0--------0---0---0---0--0-0--|
Chorus (Guitar 2)|-----------------------------------------------------------||-----------------------------------------------------------||-----------------------------------------------------------||-10-10-10-8-8-8-7-7-8-8-0-0--10-10-10-8-8-8-7-7-8-7h8p7----||--------------------------------------------------------8--||-----------------------------------------------------------| * * * * * * * * * * * * * * * * * * * *
|-----------------------------------------------------------||-----------------------------------------------------------||-----------------------------------------------------------||-10-10-10-8-8-8-7-7-8-8-0-0--10-10-10-8-8-8-7-7-8-7h8p7----||--------------------------------------------------------8--||-----------------------------------------------------------| * * * * * * * * * * * * * * * * * * * *
|----------------------------------------------------||----------------------------------------------------||-10-------10---10-------10---10-------10---10-------||----8p7h8----8----8p7h8----8----8p7h8----8----8p7h8-||----------------------------------------------------||----------------------------------------------------| * * * * * * * * * * * * * * *
|-------------------------------------------------------------------||-------------------------------------------------------------------||-10---10---10-------10---10-------10---10-------10--12-12p.h.~~~/--||----8---------8p7h8----8----8p7h8----8----8p7h8----8---------------||-------------------------------------------------------------------||-------------------------------------------------------------------| * * * * * * * * * * * * * * *
|----------------------------------------------------||----------------------------------------------------||-10-------10---10-------10---10-----9-----7-9-10-9--||----8p7h8----8----8p7h8----8----8-8---8-8-----------||----------------------------------------------------||----------------------------------------------------| * * * * * * * * * * * *
Outro (Guitar 1)
|---------------------------------------------------------||-6--6-6-6-6-6--6-6-6-6-6--6-6-6-6-6--6-6-6-6-6--6-6-6-6--||-9--9-9-9-9-9--9-9-9-9-9--9-9-9-9-9--9-9-9-9-9--9-9-9-9--||-0--0-0-0-0-0--0-0-0-0-0--0-0-0-0-0--0-0-0-0-8--8-8-8-8--||---------------------------------------------------------||---------------------------------------------------------|
|-------------------------------------||-6--6-6-6-6-6--6-6-6-6-6--6-6-6-6-6--||-9--9-9-9-9-9--9-9-9-9-9--9-9-9-9-9--||-8--8-8-8-8-8--8-8-8-8-8--8-8-8-8-8--||-------------------------------------||-------------------------------------|
|---------------------------------------------------------||-6--6-6-6-6-6--6-6-6-6-6--6-6-6-6-6--6-6-6-6-6--6-6-6-6--||-9--9-9-9-9-9--9-9-9-9-9--9-9-9-9-9--9-9-9-9-9--9-9-9-9--||-0--0-0-0-0-0--0-0-0-0-0--0-0-0-0-0--0-0-0-0-8--8-8-8-8--||---------------------------------------------------------||---------------------------------------------------------|
|-------------------------------------||-6--6-6-6-6-6--6-6-6-6-6--6-6-6-6-6--||-9--9-9-9-9-9--9-9-9-9-9--9-9-9-9-9--||-8--8-8-8-8-8--8-8-8-8-8--8-8-8-8-8--||-------------------------------------||-------------------------------------|
Outro (Guitar 2) (Let ring till end of song)
|---------------------------||---------------------------||---------------------------||-0~~~~---------------------||-0~~~~---------------------||-0~~~~---------------------|
end
Tap to rate this tab
 
# A B C D E F G H I J K L M N O P Q R S T U V W X Y Z