Misc Unsigned Bands - Wellington - Dont Ask Dont Tell tab

Band:Wellington
Song:Don't Ask, Don't Tell
Tuning: Standard

Guitar 1 - Chris Stewart
Guitar 2 - Kirk Ramsay

Intro:(Guitar 2) Normal Last Time|-------------------------|--------|------------------||-------------------------|--------|------------------||-------------------------|--------|------------------||-----2-------2-------0---|----3---|-3-3-3-3-3-3-3-33-||-000---0---0---0---0---0-|--3---3-|-3-3-3-3-3-3-3-33-||---------3-------2-------|1-------|-1-1-1-1-1-1-1-11-|pm . . . . . . . ..Solo:(Guitar 2) - Play Intro
(Guitar 1) Distortion
|------------------------------------------||/10~-10h13p10-5--8p5--------------5h8/10~-||---------------------7p5------5h7---------||-------------------------7~---------------||------------------------------------------||------------------------------------------|
|--------------------------||-5b-5b-5b-----------------||-5b-5b-5b-----------------||----------7~--7p5---------||------------------7-5-0~--||--------------------------|
Pre-Verse (Guitar 2) Distortion
|--------------------------------------||--------------------------------------||--------------------------------------||-7-x-5-x-3-33-3-xx-77-x-5-x-3-33-3-xx-||-7-x-5-x-3-33-3-xx-77-x-5-x-3-33-3-xx-||-5-x-3-x-1-11-1-xx-55-x-3-x-1-11-1-xx-|
(Guitar 1)Distortion W/WAH|---------------------------------||-8br5----------------------------||------7p5-------xx---------------||----------7-----xx-7br5----------||------------------------7-p-5-3~-||---------------------------------|x2
Verse (Guitar 1) (Guitar 2)
|--------------------------------------||--------------------------------------||--------------------------------------||-7-x-5-x-3-33-3-xx-77-x-5-x-3-33-3-xx-||-7-x-5-x-3-33-3-xx-77-x-5-x-3-33-3-xx-||-5-x-3-x-1-11-1-xx-55-x-3-x-1-11-1-xx-|x4
Chorus: (Guitar 2)
|----------------------------------||----------------------------------||----------------------------------||-7-7-7-7-7-7-7-7-1010101010101010-||-7-7-7-7-7-7-7-7-1010101010101010-||-5-5-5-5-5-5-5-5-8-8-8-8-8-8-8-8--|
|---------------------------------||---------------------------------||---------------------------------||-3-3-3-3-3-3-3-3-5-5-5-5-5-5-5-5-||-3-3-3-3-3-3-3-3-5-5-5-5-5-5-5-5-||-1-1-1-1-1-1-1-1-3-3-3-3-3-3-3-3-|x4
(Guitar 1) w/ Wah
|----------------------------||----------------------------||----------------------------||-7tr*---10tr*---3tr*---5tr*-||----------------------------||----------------------------|* - Gradually Close Wah over bar
|----------------------------||----------------------------||----------------------------||-7tr*---10tr*---3tr*---5tr*-||----------------------------||----------------------------|* - Rock wah on beat 1,3 and 4
Preverse Verse Chorus Breakdown (Guitar 1) (Guitar 2) Distortion
|----------------------------------||----------------------------------||----------------------------------||-77------22------33------55-------||-77------22------33------55-------||-55------00------11------33-------|
|----------------------------------||----------------------------------||----------------------------------||-77xxxxxx22xxxxxx33xxxxxx55xxxxxx-||-77xxxxxx22xxxxxx33xxxxxx55xxxxxx-||-55xxxxxx00xxxxxx11xxxxxx33xxxxxx-|
Bridge: (Guitar 2) Distortion
|----------------------------------||----------------------------------||----------------------------------||----------------------------------||-77777777222222223333333355555555-||-55555555000000001111111133333333-|
Solo 2: (Guitar 2) - Play Bridge (Guitar 1) Distortion
|-------------------------------------||-11b-11b-11b-11b-11r-8-----555555555-||-----------------------10------------||-------------------------------------||-------------------------------------||-------------------------------------|
|----------------------------||-8br5-----------------------||------7-5-7brp5-------------||----------------7-555555555-||----------------------------||----------------------------|
|-----------------------------------||-----------------------------------||-----5h7-7b-7brp5--------5h7-7b-5~-||-5h7--------------7--5h7-----------||-----------------------------------||-----------------------------------|
|----------------------------------||-------8-5------------------------||-----5-----7brp5-----7brp5--------||-5h7-------------7p5-------7p5----||-------------------------------7~-||----------------------------------|
|------------------------------------------------------||-18b-18b-18b-18brp15----------------------------------||---------------------17-15-17b-17b-17b-17b-17brp15----||---------------------------------------------------17-||------------------------------------------------------||------------------------------------------------------|
|--------------------------------||--------------------------------||--------------------------------||-15-17v-15--17p15-17p15---------||------------------------17v-15v-||--------------------------------|
Chorus Outro: (Guitar 1) (Guitar 2)
|------------------||------------------||------------------||-7-x-5-x-3--------||-7-x-5-x-3--------||-5-x-3-x-1-1/15\1-| ^Quick slide up and down neck
Tap to rate this tab
 
# A B C D E F G H I J K L M N O P Q R S T U V W X Y Z