Misc Unsigned Bands - One Less Division - Another Victim tab

THIS IS A SONG THAT MY BAND AND I MADE UP. THE NAME OF OUR BAND IS ONE LESS DIVISION AND 
IS ONE OF OUR SONGS. ITS CALLED ANOTHER VICTIM. MY NAME IS BRAD AND I AM 15 AND THE 
FOR ONE LESS DIVISION.

h = hammer on
p = pull off
b/ = bend up

Intro (with wah pedal)-7p5-7p5-7p5-7p5-5h7p5--|----------------------7-|------------------------|------------------------| x4------------------------|------------------------|
-9p0-7p0-6p0-7p0-12p0-10p0-9p0-10p0-12~-| (let note ring)----------------------------------------|----------------------------------------|----------------------------------------|----------------------------------------|----------------------------------------|
Part 1------------------------------------------------------------------|------------------------------------------------------------------|------------------------------------------------------------------|-0000-3-0000-8-0000-5-0000-6-5-3-0000-3-0000-8-0000-5-0000-6-8-10-| x2-0000-3-0000-8-0000-5-0000-6-5-3-0000-3-0000-8-0000-5-0000-6-8-10-|-0000-3-0000-8-0000-5-0000-6-5-3-0000-3-0000-8-0000-5-0000-6-8-10-|
Chorus (part 2)---------------------------------------------------|---------------------------------------------------|---------------------------------------------------|-0000-777777-3333-555555-0000-777777-3333-2222h3p2-|-0000-555555-3333-555555-0000-555555-3333-2222h3p2-| x2-0000-000000-3333-555555-0000-000000-3333-2222h3p2-|
Part 3------------------------------------------------------------------|------------------------------------------------------------------|------------------------------------------------------------------|-0000-3-0000-8-0000-5-0000-6-5-3-0000-3-0000-8-0000-5-0000-6-8-10-| x2-0000-3-0000-8-0000-5-0000-6-5-3-0000-3-0000-8-0000-5-0000-6-8-10-|-0000-3-0000-8-0000-5-0000-6-5-3-0000-3-0000-8-0000-5-0000-6-8-10-|
Chorus (part 4)---------------------------------------------------|---------------------------------------------------|---------------------------------------------------|-0000-777777-3333-555555-0000-777777-3333-2222h3p2-|-0000-555555-3333-555555-0000-555555-3333-2222h3p2-| x2-0000-000000-3333-555555-0000-000000-3333-2222h3p2-|
Slow Part (part 5)-3---3-2---2-1---1-0---0--3---3----2---2----1---1----0---0-|--3-3---3-3---1-1---0-0----3-3-3-3--3-3-3-3--1-1-1-1--0-0--|---2-----2-----2-----0------2---2----2---2----2---2----0---|-----------------------------------------------------------|-----------------------------------------------------------|-----------------------------------------------------------|
Pre Solo (part 6)-------------------------------------------|-------------------------------------------|-------------------------------------------|-55555555555-55555555555-333333-3-5-3-5-0~-|-33333333333-55555555555-333333-3-5-3-5-0~-| x2 (let last note ring)-------------55555555555-333333-3-5-3-5-0~-|
Solo (part 7)-13-13-13-13-13-10-8-10-10-10-10-13-13-13p10p8h10-10----|--------------------------------------------------------|--------------------------------------------------------|--------------------------------------------------------|--------------------------------------------------------|--------------------------------------------------------|
-13-13-13p10p8-10-13p10p8-10-13p10p8-10-13p10p8-10-|---------------------------------------------------|---------------------------------------------------|---------------------------------------------------|---------------------------------------------------|---------------------------------------------------|
-13p10p8---13p10p8---13p10p8---13p10p8---|--------10--------10--------10--------10-|-----------------------------------------|-----------------------------------------|-----------------------------------------|-----------------------------------------|
-13p10p8-10-13p10p8-13p10p8-13p10p8-13p10p8-13p10p8-13p10p8-10~-|----------------------------------------------------------------|----------------------------------------------------------------|----------------------------------------------------------------|----------------------------------------------------------------|----------------------------------------------------------------|
-------------------------------------------|-------------------------------------------|----------------3h5h6-6p5p3----------------|-----------3h5h6-----------6p5p3-----------|------3h5h6---------------------6p5p3------|-3h5h6-------------------------------6p5p3-|tremelo pick all of this
-------------------------------------------|-------------------------------------------|----------------5h7h8-8p7p5----------------|-----------5h7h8-----------8p7p5-----------|------5h7h8---------------------8p7p5------|-5h7h8-------------------------------8p7p5-|tremelo pick all of this
-----------------------------------------------------|---------------------------------------------8h10h11-|-------------------7h9h10-10p9p7-------7h9h10--------|-------------7h9h10-------------10p9h10--------------|-------7h9h10----------------------------------------|-7h9h10----------------------------------------------|tremelo pick all of this
(play this part really fast, tremelo pick, move fingers fast)-7891098-7891098-91011121110-91011121110-111213141312-111213141312-|-------------------------------------------------------------------|-------------------------------------------------------------------|-------------------------------------------------------------------|-------------------------------------------------------------------|-------------------------------------------------------------------|
-131415161514-131415161514-151617181716-151617181716-|-----------------------------------------------------|-----------------------------------------------------|-----------------------------------------------------|-----------------------------------------------------|-----------------------------------------------------|
-171819201918-17181920-21b/-21-19-19-17-17h19-15-15h17-13-13h15-12-|---------------------------^---------------------------------------|---------------(slow down after the 21b/)--------------------------|-------------------------------------------------------------------|-------------------------------------------------------------------|-------------------------------------------------------------------|
-12h13-9-9h10-21b/~~~-(let note ring)-|--------------------------------------|--------------------------------------|--------------------------------------| End of Solo--------------------------------------|--------------------------------------|
Part 8------------------------------------------------------------------|------------------------------------------------------------------|------------------------------------------------------------------|-0000-3-0000-8-0000-5-0000-6-5-3-0000-3-0000-8-0000-5-0000-6-8-10-| x2-0000-3-0000-8-0000-5-0000-6-5-3-0000-3-0000-8-0000-5-0000-6-8-10-|-0000-3-0000-8-0000-5-0000-6-5-3-0000-3-0000-8-0000-5-0000-6-8-10-|
Chorus (part 9)---------------------------------------------------|---------------------------------------------------|---------------------------------------------------|-0000-777777-3333-555555-0000-777777-3333-2222h3p2-|-0000-555555-3333-555555-0000-555555-3333-2222h3p2-| x2-0000-000000-3333-555555-0000-000000-3333-2222h3p2-|
Bridge (part 10)------------------------------------|------------------------------------|------------------------------------|-0000-2-0000-3-0000-5-0000-3-0000-2-|-0000-2-0000-3-0000-5-0000-3-0000-2-| x2-0000-2-0000-3-0000-5-0000-3-0000-2-|
------------------------------------|------------------------------------|------------------------------------|-0000-3-0000-5-0000-6-0000-5-0000-3-|-0000-3-0000-5-0000-6-0000-5-0000-3-| x2-0000-3-0000-5-0000-6-0000-5-0000-3-|
------------------------------------|------------------------------------|------------------------------------|-0000-2-0000-3-0000-5-0000-3-0000-2-|-0000-2-0000-3-0000-5-0000-3-0000-2-| x2-0000-2-0000-3-0000-5-0000-3-0000-2-|
-----------------------------------------------------------------------|-----------------------------------------------------------------------|-----------------------------------------------------------------------|-0000-3-0000-5-0000-6-0000-5-0000-3-0000-5-0000-7-0000-8-0000-7-0000-8-|-0000-3-0000-5-0000-6-0000-5-0000-3-0000-5-0000-7-0000-8-0000-7-0000-8-|-0000-3-0000-5-0000-6-0000-5-0000-3-0000-5-0000-7-0000-8-0000-7-0000-8-|
Chorus (part 11)---------------------------------------------------|---------------------------------------------------|---------------------------------------------------|-0000-777777-3333-555555-0000-777777-3333-2222h3p2-|-0000-555555-3333-555555-0000-555555-3333-2222h3p2-| x1-0000-000000-3333-555555-0000-000000-3333-2222h3p2-|
(last time play this)-----------------------------------------|-----------------------------------------|-----------------------------------------|-0000-777777-3333-555555-0-7-5-3-2-2-3-0-|-0000-555555-3333-555555-0-5-5-3-2-2-3-0-| End of Song-0000-000000-3333-555555-0-0-5-3-2-2-3-0-|
WELL, THAT'S IT. THIS IS A SONG THAT WE MADE UP AND PLEASE, I WOULD REALLY LIKE IT IF U COMMENT IT. IF U HAVE ANY QUESTIONS OR NEED ANY HELP, U CAN EMAIL ME AT ALSO CHECK OUT BAT COUNTRY(VER6) BECAUSE I TABBED THAT TOO. ITS THE WHOLE SONG, NOT JUST VERSE 6.
Tap to rate this tab
 
# A B C D E F G H I J K L M N O P Q R S T U V W X Y Z