Misc Unsigned Bands - Bl4nc - Back From Rehab tab

BACK FROM REHAB - BY BL4NC 

INTRO x2

|------------------------------------------------------------------||------------------------------------------------------------------||--------5h7p5h7---------5h7p5h7---------5h7p5h7---------5h7p5h7---||---7-7---------h7-5-5---------h7-3-3---------h7-5-5---------h7-||---7-7-------------5-5-------------3-3-------------5-5------------||---5-5-------------3-3-------------1-1-------------3-3------------|
VERSE x4
|------------------------------------------------------------------||------------------------------------------------------------------||------------------------------------------------------------------||---7-7-7-7-7-7-7-7-5-5-5-5-5-5-5-5-9-9-9-9-9-9-9-9----------------||---7-7-7-7-7-7-7-7-5-5-5-5-5-5-5-59-9-9-9-9-9-9-9----------------||---5-5-5-5-5-5-5-5-3-3-3-3-3-3-3-3-7-7-7-7-7-7-7-7-1-2-3-4-2-3-4-5|
BRIDGE
|----------------------------------------------------------------------||----------------------------------------------------------------------||----------------------------------------------------------------------||---5-5-5-5-7-7-7-7-5-5-5-5-7-7-7-7-5-5-5-5-7-7-7-7-5-5-5-5-9-9-9-9---\||---5-5-5-5-7-7-7-7-5-5-5-5-7-7-7-7-5-5-5-5-7-7-7-7-5-5-5-5-9-9-9-9---\||---3-3-3-3-5-5-5-5-3-3-3-3-5-5-5-5-3-3-3-3-5-5-5-5-3-3-3-3-7-7-7-7---\|
CHORUS
|-----------------------------------||-----------------------------------||-------------------5-5-5-5-2-2-2-2-||---2-2-2-2-5-5-5-5-5-5-5-5-2-2-2-2-||---2-2-2-2-5-5-5-5-3-3-3-3-0-0-0-0-||---0-0-0-0-3-3-3-3-----------------|
|-----------------------------------||-----------------------------------||-------------------5-5-5-5-7-7-7-7-||---2-2-2-2-5-5-5-5-5-5-5-5-7-7-7-7-||---2-2-2-2-5-5-5-5-3-3-3-3-5-5-5-5-||---0-0-0-0-3-3-3-3-----------------|
|-----------------------------------||-----------------------------------||-------------------5-5-5-5-2-2-2-2-||---2-2-2-2-5-5-5-5-5-5-5-5-2-2-2-2-||---2-2-2-2-5-5-5-5-3-3-3-3-0-0-0-0-||---0-0-0-0-3-3-3-3-----------------|
|-----------------------------------||-----------------------------------||-------------------7-7-7-7-7-7-7-7-||---2-2-2-2-5-5-5-5-7-7-7-7-7-7-7-7-||---2-2-2-2-5-5-5-5-5-5-5-5-5-5-5-5-||---0-0-0-0-3-3-3-3-----------------|
FILL x2
|------------------------------------------------------------------||------------------------------------------------------------------||--------5h7p5h7---------5h7p5h7---------5h7p5h7---------5h7p5h7---||---7-7---------h7-5-5---------h7-3-3---------h7-5-5---------h7-||---7-7-------------5-5-------------3-3-------------5-5------------||---5-5-------------3-3-------------1-1-------------3-3------------|
VERSE x4
|------------------------------------------------------------------||------------------------------------------------------------------||------------------------------------------------------------------||---7-7-7-7-7-7-7-7-5-5-5-5-5-5-5-5-9-9-9-9-9-9-9-9----------------||---7-7-7-7-7-7-7-7-5-5-5-5-5-5-5-59-9-9-9-9-9-9-9----------------||---5-5-5-5-5-5-5-5-3-3-3-3-3-3-3-3-7-7-7-7-7-7-7-7-1-2-3-4-2-3-4-5|
BRIDGE
|----------------------------------------------------------------------||----------------------------------------------------------------------||----------------------------------------------------------------------||---5-5-5-5-7-7-7-7-5-5-5-5-7-7-7-7-5-5-5-5-7-7-7-7-5-5-5-5-9-9-9-9---\||---5-5-5-5-7-7-7-7-5-5-5-5-7-7-7-7-5-5-5-5-7-7-7-7-5-5-5-5-9-9-9-9---\||---3-3-3-3-5-5-5-5-3-3-3-3-5-5-5-5-3-3-3-3-5-5-5-5-3-3-3-3-7-7-7-7---\|
CHORUS
|-----------------------------------||-----------------------------------||-------------------5-5-5-5-2-2-2-2-||---2-2-2-2-5-5-5-5-5-5-5-5-2-2-2-2-||---2-2-2-2-5-5-5-5-3-3-3-3-0-0-0-0-||---0-0-0-0-3-3-3-3-----------------|
|-----------------------------------||-----------------------------------||-------------------5-5-5-5-7-7-7-7-||---2-2-2-2-5-5-5-5-5-5-5-5-7-7-7-7-||---2-2-2-2-5-5-5-5-3-3-3-3-5-5-5-5-||---0-0-0-0-3-3-3-3-----------------|
|-----------------------------------||-----------------------------------||-------------------5-5-5-5-2-2-2-2-||---2-2-2-2-5-5-5-5-5-5-5-5-2-2-2-2-||---2-2-2-2-5-5-5-5-3-3-3-3-0-0-0-0-||---0-0-0-0-3-3-3-3-----------------|
|-----------------------------------||-----------------------------------||-------------------7-7-7-7-7-7-7-7-||---2-2-2-2-5-5-5-5-7-7-7-7-7-7-7-7-||---2-2-2-2-5-5-5-5-5-5-5-5-5-5-5-5-||---0-0-0-0-3-3-3-3-----------------|
FILL x2
|------------------------------------------------------------------||------------------------------------------------------------------||--------5h7p5h7---------5h7p5h7---------5h7p5h7---------5h7p5h7---||---7-7---------h7-5-5---------h7-3-3---------h7-5-5---------h7-||---7-7-------------5-5-------------3-3-------------5-5------------||---5-5-------------3-3-------------1-1-------------3-3------------|
SOLO!!!!
pppppppppppppppppppppppppppppppppppppppp |---87558755875587558755875587558755---------------------||-----------------------------------87558755-------------||--------------------------------------------7b9rb7-5---5||-----------------------------------------------------7--||--------------------------------------------------------||--------------------------------------------------------|
|------------------------------------------------||------------------------------------------------||---5h6-5h6--5h6--5h6---------------------------||------7~---7~---7~---7~-7-5---------------------||----------------------------7-5-----------------||--------------------------------8-7-5-5-8-7-5-5-|
|--------------------------------------5-5-7-8-||--------------------------7~-5~-7~-5~---------||--------------------------7~-5~-7~-5~---------||---------------------5-7~---------------------||-------5h7-----5h7-7--------------------------||---5h8-----5h8--------------------------------|
|---20b22-20b22-20b22-20b22-20-19-17-------------------------------||------------------------------------20-19-17----------------------||---------------------------------------------19~-17-19~~17-----17-||-----------------------------------------------------------19-----||------------------------------------------------------------------||------------------------------------------------------------------|
|---20-20-20-20-20-20-20-20-20-20-20-20-20-20-20-20\-||---17-17-17-17-17-17-17-17-17-17-17-17-17-17-17-17\-||----------------------------------------------------||----------------------------------------------------||----------------------------------------------------||----------------------------------------------------|
|----------------------------------------------------||---17-17-17-17-17-17-17-17-17-17-17-17-17-17-17-17\-||---19-19-19-19-19-19-19-19-19-19-19-19-19-19-19-19\-||----------------------------------------------------||----------------------------------------------------||----------------------------------------------------|
|----------------------------------------------------||---17-17-17-17-17-17-17-17-17-17-17-17-17-17-17-17\-||---17-17-17-17-17-17-17-17-17-17-17-17-17-17-17-17\-||----------------------------------------------------||----------------------------------------------------||----------------------------------------------------|
|----------------------------------------------------||---17-17-17-17-17-17-17-17-17-17-17-17-17-17-17-17\-||---16-16-16-16-16-16-16-16-16-16-16-16-16-16-16-16\-||----------------------------------------------------||----------------------------------------------------||----------------------------------------------------|
|---0h3h5-h0h3h5-0h5h7-0h5h7-0h7h9-0h7h9-0h9h12-0h9h12-||------------------------------------------------------||------------------------------------------------------||------------------------------------------------------||------------------------------------------------------||------------------------------------------------------|
|---0h12h15-0h12h15-0h15h17-0h15h17-0h17h19-0h17h19-22b24\\\-||------------------------------------------------------------||------------------------------------------------------------||------------------------------------------------------------||------------------------------------------------------------||------------------------------------------------------------|
DRUM SOLO BASS SOLO FILL x2
|------------------------------------------------------------------||------------------------------------------------------------------||--------5h7p5h7---------5h7p5h7---------5h7p5h7---------5h7p5h7---||---7-7---------h7-5-5---------h7-3-3---------h7-5-5---------h7-||---7-7-------------5-5-------------3-3-------------5-5------------||---5-5-------------3-3-------------1-1-------------3-3------------|
VERSE x4
|------------------------------------------------------------------||------------------------------------------------------------------||------------------------------------------------------------------||---7-7-7-7-7-7-7-7-5-5-5-5-5-5-5-5-9-9-9-9-9-9-9-9----------------||---7-7-7-7-7-7-7-7-5-5-5-5-5-5-5-59-9-9-9-9-9-9-9----------------||---5-5-5-5-5-5-5-5-3-3-3-3-3-3-3-3-7-7-7-7-7-7-7-7-1-2-3-4-2-3-4-5|
BRIDGE
|----------------------------------------------------------------------||----------------------------------------------------------------------||----------------------------------------------------------------------||---5-5-5-5-7-7-7-7-5-5-5-5-7-7-7-7-5-5-5-5-7-7-7-7-5-5-5-5-9-9-9-9---\||---5-5-5-5-7-7-7-7-5-5-5-5-7-7-7-7-5-5-5-5-7-7-7-7-5-5-5-5-9-9-9-9---\||---3-3-3-3-5-5-5-5-3-3-3-3-5-5-5-5-3-3-3-3-5-5-5-5-3-3-3-3-7-7-7-7---\|
CHORUS
|-----------------------------------||-----------------------------------||-------------------5-5-5-5-2-2-2-2-||---2-2-2-2-5-5-5-5-5-5-5-5-2-2-2-2-||---2-2-2-2-5-5-5-5-3-3-3-3-0-0-0-0-||---0-0-0-0-3-3-3-3-----------------|
|-----------------------------------||-----------------------------------||-------------------5-5-5-5-7-7-7-7-||---2-2-2-2-5-5-5-5-5-5-5-5-7-7-7-7-||---2-2-2-2-5-5-5-5-3-3-3-3-5-5-5-5-||---0-0-0-0-3-3-3-3-----------------|
|-----------------------------------||-----------------------------------||-------------------5-5-5-5-2-2-2-2-||---2-2-2-2-5-5-5-5-5-5-5-5-2-2-2-2-||---2-2-2-2-5-5-5-5-3-3-3-3-0-0-0-0-||---0-0-0-0-3-3-3-3-----------------|
|-----------------------------------||-----------------------------------||-------------------7-7-7-7-7-7-7-7-||---2-2-2-2-5-5-5-5-7-7-7-7-7-7-7-7-||---2-2-2-2-5-5-5-5-5-5-5-5-5-5-5-5-||---0-0-0-0-3-3-3-3-----------------|
|------------------------------------------------------------------||------------------------------------------------------------------||--------5h7p5h7---------5h7p5h7---------5h7p5h7---------5h7p5h7---||---7-7---------h7-5-5---------h7-3-3---------h7-5-5---------h7-||---7-7-------------5-5-------------3-3-------------5-5------------||---5-5-------------3-3-------------1-1-------------3-3------------|
|-------||-------||-------| |---7x--||---7x--| END ON THAT NOTE, MUTE STRAIGHT AFTER.|---5x--|
GUITAR LEGEND b- bend rb- release bend x- mute h- hammer on p- pull off ~- vibrato \- slide down
Tap to rate this tab
 
# A B C D E F G H I J K L M N O P Q R S T U V W X Y Z