Misc Unsigned Bands - Charlieissocoollike - Blunty We Love You tab

Blunty, we love you.


Standard tuning.

Intro

|---------------|---------------|---------------|---------------||-----1----1----|-----1----1----|-----1----1----|-----1----1----||---0----0----0-|---0----0---0--|---0----0----0-|---0----0----0-||---------------|---------------|-2----2----2---|-3----3----2---||-3----3----3---|-2----3----2---|---------------|---------------||---------------|---------------|---------------|---------------|
|---------------|---------------|---------------|---------------||-----1----1----|-----1----1----|-----1----1----|---------------||---0----0----0-|---0----0---0--|---0----0----0-|---------------||---------------|---------------|-2---------2---|-3-------------||-3----3----3---|-2----3----2---|------0--------|---------------||---------------|---------------|---------------|---------------|
Verse 1 is pretty much the same, just simpler.
|---------------|---------------|---------------|---------------||-----1----1----|-----1----1----|-----1----1----|-----1----1----||---0----0----0-|---0----0---0--|---0----0----0-|---0----0----0-||---------------|---------------|-2----2----2---|-3----3----2---||-3----3----3---|-2----3----2---|---------------|---------------||---------------|---------------|---------------|---------------|
|---------------|---------------|---------------|---------------||-----1----1----|-----1----1----|-----1----1----|-----1----1----||---0----0----0-|---0----0---0--|---0----0----0-|---0----0----0-||---------------|---------------|-2----2----2---|-3----3----2---||-3----3----3---|-2----2----2---|---------------|---------------||---------------|---------------|---------------|---------------|
|---------------|---------------|---------------|---------------||-----1----1----|-----1----1----|-----1----1----|-----1----1----||---0----0----0-|---0----0---0--|---0----0----0-|---0----0----0-||---------------|---------------|-2----2----2---|-3----3----2---||-3----3----3---|-2----3----2---|---------------|---------------||---------------|---------------|---------------|---------------|
|---------------|---------------|---------------|---------------||-----1----1----|-----1----1----|-----1----1----|---------------||---0----0----0-|---0----0---0--|---0----0----0-|---------------||---------------|---------------|-2----2----2---|-3-------------||-3----3----3---|-2----2----2---|---------------|---------------||---------------|---------------|---------------|---------------|
Verse 2 is chords. As I donít really know the proper names (I know simple chord names not all chords) here they are in tab.
|-3-------------|-0-------------|-0----0----0---|-0-----0-------||-3-------------|-1-------------|-1----1----1---|-1-----1-------||-0-------------|-2-------------|-0----0----0---|-0-----0-------| x4|-0-------------|-3-------------|-2----2----2---|-3-----2-------||-2-------------|-x-------------|-3----3----3---|-3-----3-------||-3-------------|-x-------------|-x----x----x---|-x-----x-------|
Chorus: listen to song to get rhythms or just ad. Lib
|-0-------------|-0-------------|-0-------------|-0-------------||-1-------------|-0-------------|-1-------------|-1-------------||-0-------------|-1-------------|-2-------------|-2-------------||-2-------------|-2-------------|-2-------------|-3-------------| x4|-3-------------|-2-------------|-0-------------|-x-------------||-x-------------|-0-------------|-0-------------|-x-------------|
The structure of the song is: Intro Verse 1 Verse 2 Chorus Verse 1 Verse 2 Chorus x2 And the end chord is a C. There are breaks in the song where I have added in extra lyrics, but Iím sure you can those out. Have fun with it! But donít forget to tell the people you play it too who wrote it even though Iím sure you would do that anyway... Charlieissocoollike
Tap to rate this tab
 
# A B C D E F G H I J K L M N O P Q R S T U V W X Y Z