Misc Unsigned Bands - Element Of Surprise - Apologies tab

This Apologies bo_dagget. Bask in it's glory!

Tuning: Standard

Intro:guitar 1|-----------------------------------------------------------||-----------------------------------------------------------||-----------------------------------------------------------||-----------------------------------------------------------||-14-14-----14-14-----14-14--14-14--14-14-14-14-14-14-14-14-||-----------------------------------------------------------|
|-------------------------------------------------------------------------||-------------------------------------------------------------------------||-------16-16-15-15-16-16-------16-16-15-15-16-15-------16-16-15-15-16-16-||-------------------------------------------------------------------------||-14-14-------------------------------------------------------------------||-------------------------14-14-------------------16-16-------------------|
|
|-------------------------||-------------------------||-------16-16-15-15-16-16-||-------------------------||-------------------------||-12-12-------------------|x2
guitar 2|------------------||------------------||-4----------------||-4----4----6----2-||-2----4----6----2-||------2----4----0-|x2
verse 1both guitars|-----------------------------------------------------------------||-----------------------------------------------------------------||-4-4-4-4-4-4-4-4-------------------------------------------------||-4-4-4-4-4-4-4-4-4-4-4-4-4-4-4-4-6-6-6-6-6-6-6-6-2-2-2-2-2-2-2-2-||-2-2-2-2-2-2-2-2-4-4-4-4-4-4-4-4-6-6-6-6-6-6-6-6-2-2-2-2-2-2-2-2-||-----------------2-2-2-2-2-2-2-2-4-4-4-4-4-4-4-4-0-0-0-0-0-0-0-0-|x4pm . . . . . . . . . . . . . . . . . . . . . . . . . . . .
Pre ChorusGuitar 1|------------------||------------------||---4--------------||-------4---6---2--||-2------------2-2-||-----2---4---0----|x2
Guitar 2|------------------||------------------||-4----------------||-4---4---6---2----||-2---4---6---2----||-----2---4---0----|x2
ChorusGuitar 1|-------------------------------------||-------------------------------------||-4-4-4434-----4434-----4434-----4434-||-4-4------4-4------6-6------2-2------||-2-2------4-4------6-6------2-2------||----------2-2------4-4------0-0------|x2
|---------------------------------||---------------------------------||-4-4-4-4-------------------------||-4-4-4-4-4-4-4-4-6-6-6-6-2-2-2-2-||-2-2-2-2-4-4-4-4-6-6-6-6-2-2-2-2-||---------2-2-2-2-4-4-4-4-0-0-0-0-|
|------------------||------------------||---4--------------||-------4---6~-----||-2----------------||-----2---4--------|
Guitar 2|-------------------------------------||-------------------------------------||-4-4---------------------------------||-4-4------4-4------6-6------2-2------||-2-2------4-4------6-6------2-2------||----------2-2------4-4------0-0------|x2
|---------------------------------||---------------------------------||-4-4-4-4-6-6-6-6-8-8-8-8-9-9-9-9-||-x-x-x-x-x-x-x-x-x-x-x-x-x-x-x-x-||-2-2-2-2-4-4-4-4-6-6-6-6-7-7-7-7-||---------------------------------|
|------------------||------------------||-4---6---8--------||-x---x---x--------||-2---4---6--------||------------------|
Post ChorusGuitar 1|-------------------------------------------------------------------------||-------------------------------------------------------------------------||-------16-16-15-15-16-16-------16-16-15-15-16-15-------16-16-15-15-16-16-||-------------------------------------------------------------------------||-14-14-------------------------------------------------------------------||-------------------------14-14-------------------16-16-------------------|
|
|-------------------------||-------------------------||-------16-16-15-15-16-16-||-------------------------||-------------------------||-12-12-------------------|x2
Guitar 2|-----------------------------||-----------------------------||-4-44-4-6-66-6-8-88-8-9-99-9-||-x-xx-x-x-xx-x-x-xx-x-x-xx-x-||-2-22-2-4-44-4-6-66-6-7-77-7-||-----------------------------|x2
Verse 2Guitar 1|---------------------||---------------------||-4-3---3-4-3-------3-||-----4-------4/2\4---||---------------------||---------------------|x4
Guitar 2|---------------------------------||---------------------------------||-4-4-4-4-6-6-6-6-8-8-8-8-9-9-9-9-||-x-x-x-x-x-x-x-x-x-x-x-x-x-x-x-x-||-2-2-2-2-4-4-4-4-6-6-6-6-7-7-7-7-||---------------------------------|x4
Pre Chorus again Chorus again Post Chorus again
Solo (note: this is a BASS SOLO, not a guitar solo, that is why the 2 guitars are just playing clean chords)Guitar 1 (clean now)|------------------||------------------||-4----------------||-4---4---6---2----||-2---4---6---2----||-----2---4---0----|x2
Dist here v|------------------||------------------||---4--------------||-------4---6---2--||-2------------2-2-||-----2---4---0----|x2
Guitar 2 (also clean)|------------------||------------------||-4----------------||-4---4---6---2----||-2---4---6---2----||-----2---4---0----|x4
Dist here ^ on 4th timeLast ChorusGuitar 1|---------------------------------||---------------------------------||-4-4-4-4-------------------------||-4-4-4-4-4-4-4-4-6-6-6-6-2-2-2-2-||-2-2-2-2-4-4-4-4-6-6-6-6-2-2-2-2-||---------2-2-2-2-4-4-4-4-0-0-0-0-|x3
|------------------||------------------||---4--------------||-------4---6~-----||-2----------------||-----2---4--------|
Guitar 2|---------------------------------||---------------------------------||-4-4-4-4-------------------------||-4-4-4-4-4-4-4-4-6-6-6-6-2-2-2-2-||-2-2-2-2-4-4-4-4-6-6-6-6-2-2-2-2-||---------2-2-2-2-4-4-4-4-0-0-0-0-|x2
|---------------------------------||---------------------------------||-4-4-4-4-6-6-6-6-8-8-8-8-9-9-9-9-||-x-x-x-x-x-x-x-x-x-x-x-x-x-x-x-x-||-2-2-2-2-4-4-4-4-6-6-6-6-7-7-7-7-||---------------------------------|
|------------------||------------------||-4---6---8--------||-x---x---x--------||-2---4---6--------||------------------|
EndBoth Guitars|---||---||-4-||-4-||-2-||---|
-BASS FILL- That's it!
Tap to rate this tab
 
# A B C D E F G H I J K L M N O P Q R S T U V W X Y Z