Misc Unsigned Bands - Burn The Witch - Agnostic Frost tab

Band:Burn The Witch
Song:Agnostic Frost
Album:Burn the Witch

Genre:melodic death metal

intro(lead guitar)1------------------------|2-------10-----------12*-|3--13-14-------13-14-----|4------------------------|5------------------------|6-0----------0-----------| repeat 4x
verse-Both guitars1-------------------------------------------------|2----------------------------------------------10-|3---------------------------------------12^-14----|4-------------------------------------13----------|5--------7----7----9---------10-----7-------------|6-0-0-0-0--0-0--0-0--0-0-0-0----0-0---------------|
1-------------------------------------------------|2-------------------------------------------------|3-------------------------------9-----xx-xx-x-x-9-|4-------------------------------9-9-9-12-12-9-9-9-|5-------8-8-8--------7-7-7------9-9-9-10-10-7-7-9-|6-0-0-0--------0-0-0-------0-0-0------------------| repeat 3x
lead solo1-------------------------16161616161618181816-----------------|2------------------13--12---------------------20^-----15-17-18-|3------17h12-----12--15-13-----------------------9--15---------|4---14------16-18----------------------------------13----------|5-12-----------------------------------------------------------|6--------------------------------------------------------------|
1-121212121212121212124121212121213131313121212-18-19----------|2--------------------------------------------------------------|3-----------------------------------------------------17-------|4--------------------------------------------------------21-19-|5--------------------------------------------------------------|6--------------------------------------------------------------|
1-------------------------------12-17-18-------------|2-----------------------------14---------8-10--------|3---------------15-16---12^12^----------------13-15*-|4-------12-14-12----14-------------------------------|5------6--------------13-----------------------------|6-18-17----------------------------------------------|
Dual part1---------------------------------------------|2-----------12-13-14-12-13-14-12-13-14--------|3-12^s14-15-----------------------------6-8-9-|4---------------------------------------------|5---------------------------------------------|6---------------------------------------------|
chorus1--------------------------------------------|2--------------------------------------------|3--------------------------------------------|4-10-10-10-10-10-10-x-x-x-x--x-x-x-----------|5-10-10-10-10-10-10-8-8-8-8--6-6-6-5-5-5-5-3-|6-10-10-10-10-10-10-6-6-6-6--3-3-3-3-3-3-3-3-|
solo1------------16s17-14----------|2-12-------14-------------14h9-|3--------------------8---------|4------------------------------|5------------------------------|6------------------------------|
1-------------------------------------|2-----------------------------15-16s8-|3------9-15-----------16-20-13--------|4----------7--------------------------|5-16-14---------13-12^----------------|6-----------8-14----------------------|
1-12t14t121212121212141414-2--------------------------|3--------------------------|4--------------------------|5--------------------------|6--------------------------|
1----------------14---|2-----------------16*-|3-13-4-14-12-8-12-----|4---------------------|5---------------------|6---------------------|
1-----------15---|2-18-16---14-----|3------12-----16-|4----------------|5----------------|6----------------|
1-------------------------|2-10-10-10-10-12-12-12-13-|3-------------------------|4-------------------------|5-------------------------|6-------------------------|
Tap to rate this tab
 
# A B C D E F G H I J K L M N O P Q R S T U V W X Y Z