Misc Unsigned Bands - Suns Of The Tundra - Biast Part 1 tab

Well...

I tried many times to put this under "Suns of the Tundra" on UG, but APPARENTLY they 
a real band...so i've given up. Here's my Biast pt. 1 tab under the Misc unsigned bands 
they are obviously a real band.

*sigh*

Oh and "Gunjak" is my friend who I sent an early version of this tab to, and he put it 
here as a joke...the tab had no input from Gunjak at all :D

anyway...

This is an incredible song, it truely is. Credit goes out to my best mate Jordie B and 
girlfriend Naomi D for helping me with some of the riffs.

b = Bend                  ~ = Vibrato
br = Bend then release    / = Slide up
p = Pull-off              \ = Slide down
h = Hammer-on             pm = Palm mute


e|--------------------------------------------|b|--------------------------------------------|g|--------------------------------------------|d|--------------------------------------------|a|-5-3------3-3--5-3------3-3-0-3-3~3-0-3-3~3-|D|-----5b-0-3--------5b-0-3---0-3-----0-3-----|
|--------------------------------------------------||--------------------------------------------------||--------------------------------------------------||-------------------------------------------0-3/10-||-5-3-----3-3--5-3------3-3-0-3-3~3-0-3-3~3-0-3/10-||----5b-0-3--------5b-0-3---0-3-----0-3-----0-3/10-|
|--------------------------------------------||--------------------------------------------||--------------------------------------------||--------------------------------------------||-5-3------3-3--5-3------3-3-0-3-3~3-0-3-3~3-||-----5b-0-3--------5b-0-3---0-3-----0-3-----|
|--------------------------------------------------||--------------------------------------------------||--------------------------------------------------||-------------------------------------------0-3/10-||-5-3-----3-3--5-3------3-3-0-3-3~3-0-3-3~3-0-3/10-||----5b-0-3--------5b-0-3---0-3-----0-3-----0-3/10-|
|--------------------------------------------||--------------------------------------------||--------------------------------------------||-----------------0-3/10------------------0-3||-0-3-3~3-0-3-3~3-0-3/10--0-3-3~3-0-3-3~3-0-3||-0-3-----0-3-----0-3/10--0-3-----0-3-----0-3| pm
|---------------------------||-13--13--13------13--------| x alot|---14--14--14--14--14-16br-||---------------------------||---------------------------||---------------------------|
|--------------------------||--------------------------||--------5-----------5-4---||---/5-7---7----/5-7-----5-||--------------------------| X3|-0------------------------|
|-------------------------||-------------------------||--------5-----------5-4--||---/5-7---7----/5-7------||-------------------------||-0-----------------------|
|---------------------------||-13--13--13------13--------| x alot|---14--14--14--14--14-16br-||---------------------------||---------------------------||---------------------------|
|--------------||-13--13--13---| x alot|---14--14--14-||--------------||--------------||--------------|
|--------------------------||--------------------------||--------5----------5-4----||---/5-7---7---/5-7-----5b-||--------------------------| X4|-0------------------------|
Slight distortion
|-------------------------||-------------------------||--------5----------5-4---||---/5-7---7---/5-7-----5-||-------------------------| X3|-0-----------------------|
|-------------------------||-------------------------||--------5----------5-4---||---/5-7---7---/5-7-----5-||-------------------------||-0-----------------------|
|------------------------------------------------->|------------------------------------------------->|---------5---------5-------5---------5-------5--->|-5~-/5-7---7--/5-7---7--/5---7--/5-7---5--/5---7->|------------------------------------------------->|------------------------------------------------->
<----------------------------|<----------------------------|<------5-4-----------5-7b-7b-|<-/5-7-----5-7--/5-7---------|<----------------------------|<----------------------------|
*Guitar break, bass carry's on*
|----||-3~-||-2~-||-0--| X2|-0--||-0--|
Mega Riff.
|--------------------------------------------------------------------->|--------------------------------------------------------------------->|--------------------------------------------------------------------->|-3b-0----0-2-3-3--3/9-10-10~-10-12-0-12\3-2-0--12\5-5-5-5p0-3--3-2-0->|-3b-0----0-2-3-3--3/9-10-10~-10-12-0-12\3-2-0--12\5-5-5-5p0-3--3-2-0->|-3b-0----0-2-3-3--3/9-10-10~-10-12-0-12\3-2-0--12\5-5-5-5p0-3--3-2-0-> **let ring
<------------------------------------------------------|<------------------------------------------------------|<------------------------------------------------------|<-0-2-3-3--3/9-10-10~-10-12-0-12\3-2-0--12\5-5-5-5p0-3-|<-0-2-3-3--3/9-10-10~-10-12-0-12\3-2-0--12\5-5-5-5p0-3-|<-0-2-3-3--3/9-10-10~-10-12-0-12-3-2-0--12\5-5-5-5p0-3-|
|-----------||-----------||-----------||-----------||-----------||-0-3p0-5p0-|
|----------------------------------------------------------||----------------------------------------------------------||----------------------------------------------------------||-8-8-8-8-x8/11-11-11-11-x11-10--8-8-8-8-x8/11-11-x11-10~--| X2|-8-8-8-8-x8/11-11-11-11-x11-10--8-8-8-8-x8/11-11-x11-10~--||-8-8-8-8-x8/11-11-11-11-x11-10--8-8-8-8-x8/11-11-x11-10~--|
|------------------------------------------------------------------->|------------------------------------------------------------------->|------------------------------------------------------------------->|-0----0-2-3-3--3/9-10~~~~-10-12-0-12\3-2-0--12\5-5-5-5p0-3---3-2-0->|-0----0-2-3-3--3/9--------10-12-0-12\3-2-0--12\5-5-5-5p0-3---3-2-0->|-0----0-2-3-3--3/9--------10-10-0-12-3-2-0--12\5-5-5-5p0-3---3-2-0-> *
*Let ring
<------------------------------------------------------|<------------------------------------------------------|<------------------------------------------------------|<-0-2-3-3--3/9-10-10~-10-12-0-12-3-2-0--12\5-5-5-5p0-3-|<-0-2-3-3--3/9-10-10~-10-12-0-12-3-2-0--12\5-5-5-5p0-3-|<-0-2-3-3--3/9-10-10~-10-12-0-12-3-2-0--12\5-5-5-5p0-3-|
|-----------||-----------||-----------||-----------||-----------||-0-3p0-5p0-|
|----------------------------------------------------------||----------------------------------------------------------||----------------------------------------------------------||-8-8-8-8-x8/11-11-11-11-x11-10--8-8-8-8-x8/11-11-x11-10~--||-8-8-8-8-x8/11-11-11-11-x11-10--8-8-8-8-x8/11-11-x11-10~--||-8-8-8-8-x8/11-11-11-11-x11-10--8-8-8-8-x8/11-11-x11-10~--|
|---------------------------------------------------------------------||---------------------------------------------------------------------||---------------------------------------------------------------------||-8-8-8-8-x8/11-11-11-11-x11-10--8-8-8-8-x8/11-11\--------------------||-8-8-8-8-x8/11-11-11-11-x11-10--8-8-8-8-x8/11-11\--------------------||-8-8-8-8-x8/11-11-11-11-x11-10--8-8-8-8-x8/11-11\--0-3p0-5p0---------|
|----------------------------------------------------------||----------------------------------------------------------||----------------------------------------------------------||-8-8-8-8-x8/11-11-11-11-x11-10--8-8-8-8-x8/11-11-x11-10~--||-8-8-8-8-x8/11-11-11-11-x11-10--8-8-8-8-x8/11-11-x11-10~--||-8-8-8-8-x8/11-11-11-11-x11-10--8-8-8-8-x8/11-11-x11-10~--|
|----------------------------------------------||----------------------------------------------||----------------------------------------------||-7--7--7--7/-12-12\--12\--xx12b---15-14-12-10-||-7--7--7--7/-12-12\--12\--xx12b---15-14-12-10-||-7--7--7--7/-12-12\--12\--xx12b---15-14-12-10-|
|------------------------------------------------||------------------------------------------------||------------------------------------------------||-12-12\--12\--xx1212--xx10--xx10--xx15-14-12-10-||-12-12\--12\--xx1212--xx10--xx10--xx15-14-12-10-||-12-12\--12\--xx1212--xx10--xx10--xx15-14-12-10-|
|------------------------------------------|---||------------------------------------------|---||------------------------------------------|---||-0-----------------0---------15-14-12-10--|-7-| X3 *palm mute|-0-5p3----0-5-0-3--0-5p3-----15-14-12-10--|-7-||-0-----5b-0-5-0-3--0-----5b//15-14-12-10--|-7-| * Last time only, let feedback
...enter Biast part 2...
Tap to rate this tab
 
# A B C D E F G H I J K L M N O P Q R S T U V W X Y Z