Misc Unsigned Bands - Classmate 67 - Untitled tab

This song is untitled, i just wrote it 2 days ago. its good, enjoy!
D4VEY A.D. - CLASSMATE 67

Intro and Verse:|---------------------||---------------------||---------------------||---------3-3-3-3-----||-1--1-1--3-3-3-3-----||-1--1-1--------------|
4x
|---------------------||---------------------||---------------------||---------7--7--------||-5--5-5--7--7--------||-5--5-5--------------|
Chorus:|---------------------||---------------------||---------------------||--------3-3-3-3------||-1-1-1--3-3-3-3------||-1-1-1---------------|
4x
|---------------------||---------------------||---------------------||---------------------||-3-3-3--5-5-5-3------||-3-3-3--5-5-5-3------|
Slow Thinger:|---------------------||---------------------||---------------------||---------------------||-1--1--1--1--3--3--3-||-1--1--1--1--3--3--3-|
|---------------------||---------------------||---------------------||---------------------| 2x|-3--5--5--5--5--6--6-||-3--5--5--5--5--6--6-|
|---------------------||---------------------||---------------------||---------------------||-6--6----------------||-6--6----------------|
Then:|---------------------||---------------------||---------------------||---------------------||-1--1--1--1--3--3--3-||-1--1--1--1--3--3--3-|
|---------------------||---------------------||---------------------||---------------------||-3--5--5--5--5--3--3-||-3--5--5--5--5--3--3-|
|---------------------||---------------------||---------------------||---------------------||-3--3----------------||-3--3----------------|
Then:|---------------------||---------------------||---------------------||---------------------||-1--1--1--1--3--3--3-||-1--1--1--1--3--3--3-|
|---------------------||---------------------||---------------------||---------------------||-3--5--5--5--5--6--6-||-3--5--5--5--5--6--6-|
|---------------------||---------------------||---------------------||---------------------||-6--6----------------||-6--6----------------|
Intro then verse, then chorus, then verse, then chorus, then slow thinger, then verse, then chorus, no lyrics yet, but if any questions or comments contact me at: daddevoe@yahoo.com, D4VEY (singer, and guitarist for CLASSMATE 67)
Tap to rate this tab
 
# A B C D E F G H I J K L M N O P Q R S T U V W X Y Z