Misc Unsigned Bands - Arsenic - Christine tab

Tempo: 160bpm

Intro

|-3---3-3---3-3-3|-0---0-0---0-0-0| ||-0---0-0---0-0-0|-0---0-0---0-0-0| ||-0---0-0---0-0-0|-0---0-0---0-0-0| |_ _ Repeat 2 times|-0---0-0---0-0-0|-2---2-2---2-2-2| ||-2---2-2---2-2-2|-2---2-2---2-2-2| ||-3---3-3---3-3-3|-0---0-0---0-0-0| |
|-0---0-0---0-0-0|-2---2-2---2-2-2| |-1---1-1---1-1-1|-3---3-3---3-3-3| |-2---2-2---2-2-2|-2---2-2---2-2-2| |-2---2-2---2-2-2|-0---0-0---0-0-0| |-0---0-0---0-0-0|----------------| |----------------|----------------|
Verse 1
|---3---3---3---3|---0---0---0---0| |---0---0---0---0|---0---0---0---0| |---0---0---0---0|---0---0---0---0| |---0---0---0---0|---2---2---2---2| |---2---2---2---2|---2---2---2---2| |---3---3---3---3|---0---0---0---0|
|---3---3---3---3|---0---0---0---0| |---0---0---0---0|---0---0---0---0| |---0---0---0---0|---0---0---0---0| |---0---0---0---0|---2---2---2---2| |---2---2---2---2|---2---2---2---2| |---3---3---3---3|---0---0---0---0|
|---0---0---0---0|---2---2---2---2| |---1---1---1---1|---3---3---3---3| |---2---2---2---2|---2---2---2---2| |---2---2---2---2|---0---0---0---0| |---0---0---0---0|----------------| |----------------|----------------|
Repeat the Verse 3 times then... Post Verse 1
|---3---3---3---3|---3-~~~~~~~~~~-| |---0---0---0---0|---0-~~~~~~~~~~-| |---0---0---0---0|---0-~~~~~~~~~~-| |---0---0---0---0|---0-~~~~~~~~~~-| |---2---2---2---2|---2-~~~~~~~~~~-| |---3---3---3---3|---3-~~~~~~~~~~-|
Break/Interlude
|---3---3---0---0|---0---0---3-~~-| ||---0---0---2---2|---0---0---0-~~-| ||---0---0---2---2|---0---0---0-~~-| |_ _ Repeat 2 times|---0---0---2---2|---2---2---0-~~-| ||---2---2---0---0|---2---2---2-~~-| ||---3---3--------|---0---0---3-~~-| |
|---0---0---0---0|---0---0---0-~~-| |---1---1---0---0|---1---1---0-~~-| |---2---2---0---0|---2---2---0-~~-| |---2---2---2---2|---2---2---2-~~-| |---0---0---2---2|---0---0---2-~~-| |-----------0---0|-----------0-~~-|
|---0---0---3---3|---0---0---0-~~-| |---1---1---0---0|---1---1---0-~~-| |---2---2---0---0|---2---2---0-~~-| |---2---2---0---0|---2---2---2-~~-| |---0---0---2---2|---0---0---2-~~-| |-----------3---3|-----------0-~~-|
Pre Verse 2
|-3---3-3---3-3-3|-0---0-0---0-0-0| ||-0---0-0---0-0-0|-0---0-0---0-0-0| ||-0---0-0---0-0-0|-0---0-0---0-0-0| |_ _ Repeat 2 times|-0---0-0---0-0-0|-2---2-2---2-2-2| ||-2---2-2---2-2-2|-2---2-2---2-2-2| ||-3---3-3---3-3-3|-0---0-0---0-0-0| |
|-0---0-0---0-0-0|-2---2-2---2-2-2| |-1---1-1---1-1-1|-3---3-3---3-3-3| |-2---2-2---2-2-2|-2---2-2---2-2-2| |-2---2-2---2-2-2|-0---0-0---0-0-0| |-0---0-0---0-0-0|----------------| |----------------|----------------|
Verse 2
|---3---3---3---3|---0---0---0---0| |---0---0---0---0|---0---0---0---0| |---0---0---0---0|---0---0---0---0| |---0---0---0---0|---2---2---2---2| |---2---2---2---2|---2---2---2---2| |---3---3---3---3|---0---0---0---0|
|---3---3---3---3|---0---0---0---0| |---0---0---0---0|---0---0---0---0| |---0---0---0---0|---0---0---0---0| |---0---0---0---0|---2---2---2---2| |---2---2---2---2|---2---2---2---2| |---3---3---3---3|---0---0---0---0|
|---0---0---0---0|---2---2---2---2| |---1---1---1---1|---3---3---3---3| |---2---2---2---2|---2---2---2---2| |---2---2---2---2|---0---0---0---0| |---0---0---0---0|----------------| |----------------|----------------|
Repeat the Verse 3 times then... Post Verse 2
|---3---3---3---3|---3-~~~~~~~~~~-| |---0---0---0---0|---0-~~~~~~~~~~-| |---0---0---0---0|---0-~~~~~~~~~~-| |---0---0---0---0|---0-~~~~~~~~~~-| |---2---2---2---2|---2-~~~~~~~~~~-| |---3---3---3---3|---3-~~~~~~~~~~-|
Outro
|-3---3-3---3-3-3|-0---0-0---0-0-0| ||-0---0-0---0-0-0|-0---0-0---0-0-0| ||-0---0-0---0-0-0|-0---0-0---0-0-0| |_ _ Repeat 5 times |-0---0-0---0-0-0|-2---2-2---2-2-2| ||-2---2-2---2-2-2|-2---2-2---2-2-2| ||-3---3-3---3-3-3|-0---0-0---0-0-0| |
then ...
|-0---0-0---0-0-0|-2---2-2---2-2-2|---3-~~~~~~~~~~~-|-~~~~~~~~~~~~~~-||-1---1-1---1-1-1|-3---3-3---3-3-3|---0-~~~~~~~~~~~-|-~~~~~~~~~~~~~~-| |-2---2-2---2-2-2|-2---2-2---2-2-2|---0-~~~~~~~~~~~-|-~~~~~~~~~~~~~~-| |-2---2-2---2-2-2|-0---0-0---0-0-0|---0-~~~~~~~~~~~-|-~~~~~~~~~~~~~~-| |-0---0-0---0-0-0|----------------|---2-~~~~~~~~~~~-|-~~~~~~~~~~~~~~-| |----------------|----------------|---3-~~~~~~~~~~~-|-~~~~~~~~~~~~~~-|
Check out our Bebo Page... www.arsenicband.bebo.com Or our MySpace Page... www.myspace.com/arsenic.band Or email the band at... arsenic.band@hotmail.co.uk
Tap to rate this tab
 
# A B C D E F G H I J K L M N O P Q R S T U V W X Y Z