Misc Unsigned Bands - The Pledge Drive - Taxi tab

Tuning: Drop D
Song: Taxi

song is straight through, you can tell when i come in

Verse:------------------------------|-1/7-7--7p6-------------------|-------------4/8-8--8-6-------|------------------------8-6---|----------------------------9-|------------------------------|
-------------------------------|-1/7-7---9p6-------------------| x2--------------4/8-8--8-6-------|-------------------------8-6---|-----------------------------9-|-------------------------------|
------------|-1/7-7--9p6-|------------|------------|------------|------------|
chorus: (it's kind of hard to write the strumming out, i tried but just listen to it)---------------------------|---------------------------| x2--------------------444-44-|-4-444-444-44-0-000-444-44-|-4-444-444-44-0-000-222-22-|-4-444-444-44-0-000--------|
---------------------------|-7-7-7---------------------|-6-6-6--------------444-44-|-4-4-4-444-44-0-000-444-44-|-4-4-4-444-44-0-000-222-22-|-4-4-4-444-44-0-000--------|
-------------------------------|-7-7-7-------------------------|-6-6-6----------------44444444-|-4-4-4-------00000000-44444444-|-4-4-4-------00000000-22222222-|-4-4-4-------00000000----------|
pre-verse: (trick to getting the sustained feel is hold down the d and a notes)-7p6---9p6---7p6---9p6---7p6-----|-----7-----7-----7-----7-----9p7-| x4---------------------------------|---------------------------------|---------------------------------|---------------------------------|
verse:-----------------------------------|-----7-----6---9-----6---6h7p6-----|-6-6-6-6-6-6-6-6-6-6-6-6-------8-6-|-----------------------------------|-----------------------------------|-----------------------------------| . . . . . . . .
-----------9-----------------|-----7-----x---7-----6---6h7-|-6-6-6-6-6-6-6-6-6-6-6-6-----|-----------------------------|-----------------------------|-----------------------------| . . . . . . . .
---------------------------------------9-6h7p6-------|-----7-----6---9-----6---6h7p6-----6h7---------7-----|-6-6-6-6-6-6-6-6-6-6-6-6-------8-6---------------8v/-|-----------------------------------------------------|-----------------------------------------------------|-----------------------------------------------------| . . . . . . . .
-----------------------------------|-----7-----6---9-----6---6h7p6-----|-6-6-6-6-6-6-6-6-6-6-6-6-------8-6-|-----------------------------------|-----------------------------------|-----------------------------------| . . . . . . . .
---------------9---------------|-----7-----9---x-----6---7---9-|-6-6-6-6-6-6-6-6-6-6-6-6-6-6-6-|-------------------------------|-------------------------------|-------------------------------| . . . . . . . . .
--------------------------------------------------------|-----7-----6---9-----6---6h7p6---------6---6h7p6--------|-6-6-6-6-6-6-6-6-6-6-6-6-------8-6-6-6---8-------8-<6>/-|--------------------------------------------------------|--------------------------------------------------------|--------------------------------------------------------| . . . . . . . . . . .
chorus:---------------------------|---------------------------| x2--------------------444-44-|-4-444-444-44-0-000-444-44-|-4-444-444-44-0-000-222-22-|-4-444-444-44-0-000--------|
---------------------------|-7-7-7---------------------|-6-6-6--------------444-44-|-4-4-4-444-44-0-000-444-44-|-4-4-4-444-44-0-000-222-22-|-4-4-4-444-44-0-000--------|
------------------------------------------|-7-7-7-------------------------7------7/--|-6-6-6----------------44444444-6------6/--|-4-4-4-------00000000-44444444-4---44-----|-4-4-4-------00000000-22222222-4---44-----|-4-4-4-------00000000----------4---44-----| ..
bridge:--------------------|--------------------| x4---------------4444-|-44444444-0000-4444-|-44444444-0000-2222-|-44444444-0000------|
okay this next part has 2 octaves going on simultaneoously i'll give you both i usually play the lower one but i switch occasionally to the higher one so choose
---------9-------|-----7-----7---7-| x14-6-6---6-----6---|-----------------|-----------------|-----------------|
-7p6---9p6---7p6---9p6---7p6-----|-----7-----7-----7-----7-----9p7-|---------------------------------|---------------------------------|---------------------------------|---------------------------------|
OR
-------------21----------|-------19-------19----19-| x14-18-18----18-------18----|-------------------------|-------------------------|-------------------------|
-19p18----21p18----19p18----21p18----19p18-------|-------19-------19-------19-------19-------21p19-|-------------------------------------------------|-------------------------------------------------|-------------------------------------------------|-------------------------------------------------|
on the e.p. we slowly die out, but live we cut out after the first half of the bridge i end on this
--------|-7------|-6------|-4------|-4------|-4------|
Tap to rate this tab
 
# A B C D E F G H I J K L M N O P Q R S T U V W X Y Z