Misc Unsigned Bands - Inhumane - The One tab

 Inhumane- The one
   Album- signs of the supernatral
Tuning- Standard  E,A,D,G,B,E

heavily distorted|---|------------------|-------------------------------------------||---|--play four times-|-------------------------------------------||---|------------------|-------------------------------------------||-7-|-----5h7---8---7--|-----5h7---5h7-------5h7-----3h5-------3h5-||-7-|-----5h7---8---7--|-----5h7---5h7-------5h7-----3h5-------3h5-||-7-|-000-5h7-0-8-0-7--|-0-0-5h7-0-5h7-0-0-0-5h7-0-0-3h5-0-0-0-3h5-|
|---------------------------------------------||---------------------------------------------||---------------------------------------------||---3h5-----5h7-------5h7---5h7-----------3-5-||---3h5-----5h7-------5h7---5h7-----------3-5-||-0-3h5-0-0-5h7-0-0-0-5h7-0-5h7-0-0-00-00-3-5-|
|-------------------------------||-------------------------------|play twice|-7-7p5p4---4-2-4-4-44-xx-2-----||---------5-5-0-2-4-44-xx-2-4-2-||-----------------2-22-xx-0-4-2-||---------------------------2-0-|
|----------------------------------------------------------------||----------------------------------------------------------------||----------------------------------------------------------------|gtr. 2 plays top|----------------------------------------------------------------|gtr. 1 plays bottom|-----567-----567-----567---------567-----567-567-567-567-567----||-578-----578-----578-----578-578-----578---------578-578-578----|
play the intro 3 times then play
played with a slower beat, more of a half time feel, if that makes sincemoderately distortedgtrs. 1 and 2|----------------------------------------------------------------||----------------------------------------------------------------||-----2----------------2-----------------------------------------||---2----------------2-----------------5--------4---------3------||-0-----3-(3)-2-0--0-----3-(3)-2-0--3-----3--2-----2---1-----1-0-||----------------------------------------------------------------|
|---------------------------------------------------------------||---------------------------------------------------------------||---------------------------------------------------------------||---------------------------------------------------------------||-1\14-(14)-14-(14)--14-11-12-(12)-12-(12)-12-9-11-(11)-11-(11)-||---------------------------------------------------------------|
Heavily distorted|---------------||---------------||---------------||---------------||-11-9-11-12-14-||---------------|
Song speeds back up for exit "solo"w/phaser, max distortion, delay, and reverbgtr. 1|---------------------------------19-19p17p15----17-17p15p14----||-14-14b-12h14p12-12-14-15-17-17b-------------17-------------15-||---------------------------------------------------------------||---------------------------------------------------------------||---------------------------------------------------------------||---------------------------------------------------------------|
|-15-15p13p12----14-14p12p11------12-12p10p9----14-14p12p11----||-------------13-------------12~~------------10-------------12-||--------------------------------------------------------------||--------------------------------------------------------------||--------------------------------------------------------------||--------------------------------------------------------------|
|-12-12p10p9p----10-10p9p7---10-10p8p7---10-10p8p7---10-10p9p7---||-------------10-----------9-----------8-----------8-----------9-||----------------------------------------------------------------||----------------------------------------------------------------||----------------------------------------------------------------||----------------------------------------------------------------|
|-12-12p10p9----14-14p12p11----15-15p13p12----17-17p15p14----||------------10-------------12-------------13-------------15-||------------------------------------------------------------||------------------------------------------------------------||------------------------------------------------------------||------------------------------------------------------------|
|-19-19p17p15--------||-------------17~~~~-||--------------------||--------------------||--------------------||--------------------|
now set your delay to hold for about 2 secondsgtr. 2x16 means you play that note 16 times I dont feel like writing them out|-------------------------19x16-17x16-15x16-19x16-17x16-15x16-19x16-||-17x16-19x16-15x16-17x16-------------------------------------------||-------------------------------------------------------------------||-------------------------------------------------------------------||-------------------------------------------------------------------||-------------------------------------------------------------------|
gtr. 1 plays this while gtr. 2 plays above bar and below bars|-------------------------||-------------------------|repeat throughout the whole gtr. 2 solo|-------------------------||-15x16-18x16-14x16-17x16-||-------------------------||-------------------------|
gtr. 2|-17x16-14x16-15x16-19x16-17x16-14x16-15x16-19x8-17x8-14x8-15x8-||---------------------------------------------------------------||---------------------------------------------------------------||---------------------------------------------------------------||---------------------------------------------------------------||---------------------------------------------------------------|
gtr. 2|-19x8-17x8-14x8-15x8-19x16-17x16-14x16-15x8-17x8-19x9-9---(19)-||---------------------------------------------------------------||---------------------------------------------------------------||---------------------------------------------------------------||---------------------------------------------------------------||---------------------------------------------------------------|
Then gtrs. 1 and 2 playHeavily distorted|------------------------|----------------------||----------play twice----|----------------------||------------------------|---play twice---------||------------------------|----------------------||------------------------|----------------------||-10x16-13x16-9x16-12x16-|-7x16-10x16-6x16-9x16-|
outrogtr.1 heavily distorted|---------------------------------------------------------------------||----------------------------------------------------------play twice-||---------------------------------------------------------------------||---------------------------------------------------------------------||---------------------------------------------------------------------||-2222222222222222-5555555555555555-0000000000000000-4444444444444444-|
| |
|gtr. 2 mid. distortion|---------------------------------------------------------------------||---------------------------------------------------------play twice--||---------------------------------------------------------------------||---------------------------------------------------------------------||---------------------------------------------------------------------||-2222222222222222-5555555555555555-0000000000000000-4444444444444444-|P.M..................................................................
gtr. 2|---------------------------------------------------------------------||---------------------------------------------------------------------||---------------------------------------------------------------------||---------------------------------------------------------------------||---------------------------------------------------------------------||-2222222222222222-5555555555555555-0000000000000000-4444444444444444-|
|---------------------------------------------------------------------||---------------------------------------------------------------------||---------------------------------------------------------------------||---------------------------------------------------------------------||---------------------------------------------------------------------||-2222222222222222-5555555555555555-0000000000000000-4444444444444444-|
|----------||----------||----------||----------||----------||-2----(2)-|
Tap to rate this tab
 
# A B C D E F G H I J K L M N O P Q R S T U V W X Y Z