Misc Unsigned Bands - Ex-yu-rokeri - Rock I Roll tab

Band: Ex-yu-rokeri
Album: 100%Normalno
Done By: Ex-yu-rokeri
E-Mail:
www.Ultimate-Guitar.Com
www.ex-yu-rokeri.tk

------------------------------------------------------------------------------------------------
5.Rock i Roll
------------------------------------------------------------------------------------------------

 Intro/Verse x2

Acoustic--------------------------|--------------------------|--------------------------|--------------------------|--------------------------|--------------------------|--------------------------|--------------------------|--2--2--4--4--2--2--4--4--|--2--2--4--4--2--2--4--4--|--0--0--2--2--0--0--2--2--|--0--0--2--2--0--0--2--2--|
--------------------------|--------------------------|--------------------------|--------------------------|--------------------------|--------------------------|--0--0--4--4--0--0--4--4--|--0--0--4--4--0--0--4--4--|--2--2--2--2--2--2--2--2--|--2--2--2--2--2--2--2--2--|--------------------------|--------------------------|
--------------------------|--------------------------|--------------------------|--------------------------|--------------------------|--------------------------|--4--4--6--6--4--4--6--6--|--4--4--6--6--4--4--6--6--|--2--2--4--4--2--2--4--4--|--2--2--4--4--2--2--4--4--|--------------------------|--------------------------|
Electric--------------------------|--------------------------|--------------------------|--------------------------|--------------------------|--------------------------|--------------------------|--------------------------|-----2-----4-----2-----4--|-----2-----4-----2-----4--|--0-----0-----2-----2-----|--0-----0-----2-----2-----|
--------------------------|--------------------------|--------------------------|--------------------------|--------------------------|--------------------------|-----0-----0-----2-----2--|-----0-----0-----2-----2--|--2-----2-----2-----2-----|--2-----2-----2-----2-----|--------------------------|--------------------------|
--------------------------|--------------------------|--------------------------|--------------------------|--------------------------|--------------------------|-----4-----6-----4-----6--|-----4-----6-----4-----6--|--2-----2-----4-----4-----|--2-----2-----4-----4-----|--------------------------|--------------------------|
Verse 2 x5 Distortion------------------------|------------------------|--0----2--2--0----2--2--|--0----2--2--0----2--2--|--2----2--2--2----2--2--|--2----2--2--2----2--2--|--2----2--2--2----2--2--|--2----2--2--2----2--2--|------------------------|------------------------|------------------------|------------------------|
--0----2--2--0----2--2--|--0----2--2--0----2--2--|--0----2--2--0----2--2--|--0----2--2--0----2--2--|--2----2--2--2----2--2--|--2----2--2--2----2--2--|------------------------|------------------------|------------------------|------------------------|------------------------|------------------------|
--4----2--2--4----2--2--|--4----2--2--4----2--2--|--4----4--4--4----4--4--|--4----4--4--4----4--4--|--4----4--4--4----4--4--|--4----4--4--4----4--4--|------------------------|------------------------|------------------------|------------------------|------------------------|------------------------|
----------------------|----------------------|-------2----2----0----|-------5----5----3----|-------2----2----0----|-------5----5----3----|-------2----2----0----|-------5----5----3----|----------------------|----------------------|----------------------|----------------------|
----------------------|-------4----4----2----|-------4----4----2----|-------4----4----2----|----------------------|----------------------|
Repeat Verse x4 with Verse 2
Tap to rate this tab
 
# A B C D E F G H I J K L M N O P Q R S T U V W X Y Z