Misc Unsigned Bands - Raliegh And The Skanks - Hightop Blues Jam tab

Howdy!!!

This isn't a song. It's basically a kickass blues jam I made up.

This is the intro. Play it slow and melow.|-------------------------------------------------------------||-------------------------------------------------------------||-------------------------------------------------------------||-------------------------------------------------------------| |----2---2---2/4---4---4--------4/5---5---5\4---4---4~~-------||--0---0---0-----0---0--------0-----0---0-----0---0-----------|
|-------------------------------------------------------------||-------------------------------------------------------------||-------------------------------------------------------------||--------------------------------------------------------2----| Let ring for |----2---2---2/4---4---4--------4(h)5---5---5(p)4---4\2--2----| 5 minutes|--0---0---0-----0---0--------0-------0---0-------0------0----|
Then play this part fast|-----------------------------------------------||-----------------------------------------------||-----------------------------------------------||-----------------------------------------------| |--2---2---2/4---4---4/5---5---5\4---4----------||----0---0-----0---0-----0---0-----0---0--------|
|-----------------------------------------------||-----------------------------------------------||-----------------------------------------------||-----------------------------------------------| |--2---2---2/4---4---4/5---5/7---7\5---5\4------||----0---0-----0---0-----0-----0-----0-----0----|
|-----------------------------------------------||-----------------------------------------------||-----------------------------------------------| |--2---2---2/4---4---4/5---5/7---7\5---5\4------||----0---0-----0---0-----0-----0-----0-----0----||-----------------------------------------------|
|-----------------------------------------------||-----------------------------------------------||-----------------------------------------------||-----------------------------------------------| |--2---2---2/4---4---4/5---5---5\4---4----------||----0---0-----0---0-----0---0-----0---0--------|
|-----------------------------------------------||-----------------------------------------------||-----------------------------------------------||-----------------------------------------------| |--2---2---2/4---4---4/5---5/7---7\5---5\4------||----0---0-----0---0-----0-----0-----0-----0----|
|-----------------------------------------------||-----------------------------------------------||-----------------------------------------------| |--2---2---2/4---4---4/5---5/7---7\5---5\4------||----0---0-----0---0-----0-----0-----0-----0----||-----------------------------------------------|
|-----------------------------------------------||-----------------------------------------------||-----------------------------------------------| |--2---2---2/4---4---4/5---5/7---7\5---5\4------||----0---0-----0---0-----0-----0-----0-----0----||-----------------------------------------------|
|-----------------------------------------------||-----------------------------------------------||-----------------------------------------------||-----------------------------------------------| |--2---2---2/4---4---4/5---5---5\4---4----------||----0---0-----0---0-----0---0-----0---0--------|
|-----------------------------------------------||-----------------------------------------------||-----------------------------------------------||-----------------------------------------------| |--2---2---2/4---4---4/5---5---5\4---4----------||----0---0-----0---0-----0---0-----0---0--------|
Then...|------------------------------------------------3-3---------||------------------------------------------------0-0---------||------------------------------------------------0-0---------||--------------------0---0-0(h)2(p)0---2---------0-----------||--3---3---3---3\2-----2-------------------------2-----------||----0---0---0-----------------------3---0--1-2--3--------3--|
(Then you play the whole thing a 2nd time) Thanks for your time! I'll be back...
Tap to rate this tab
 
# A B C D E F G H I J K L M N O P Q R S T U V W X Y Z