Misc Unsigned Bands – Konspiracy - These Four Words Become My Failsafe tab

Konspiracy
These Four Words (Become My Failsafe)
Diary (2007)

Tuning:CGCFAD

http://myspace.com/konspiracy1

Guitar 1:|-----------------------||-----------------------||-10--------------------||-----7-7-8-(0)-5h7p0---| x32|-----------------------||-----------------------| * *
Guitar 2:|------------------------------||------------------------------||------------------------------||-0~~~-------------0~~~--------||-0~~~-------------0~~~--------||-0~~~-------------0~~~--------|
|------------------------------||------------------------------||------------------------------||-8~~~-------------10~~~-------||-8~~~-------------10~~~-------||-8~~~-------------10~~~-------|
|------------------------------||------------------------------||-----------------/7~~~--------||-0~~~-------------0~~~--------||-0~~~-------------0~~~--------||-0~~~-------------0~~~--------|
|---------------------------------------||---------------------------------------||---------------------------------------||-8~~~-------------10~~~----------------||-8~~~-------------10~~~----------------||-8~~~-------------10~~~-------/15b+tr--|
|------------------------------||------------------------------||------------------------------||------------------------------||-000-0-0-0-0----0-0-0--0-0-0--||-000-0-0-0-0----0-0-0--0-0-0--||-000-0-0-0-0----0-0-0--0-0-0--| *** * * * * * * * * * *
|------------------------------||------------------------------||------------------------------||------------------------------||-000-0-0-0-0----0-0-0--0-0-0--||-000-0-0-0-0----0-0-0--0-0-0--||-000-0-0-0-0----0-0-0--0-0-0--| *** * * * * * * * * * *
|------------------------------||------------------------------||------------------------------||------------------------------||-888-8-8-8-8----8-8-8--8-8-8--||-888-8-8-8-8----8-8-8--8-8-8--||-888-8-8-8-8----8-8-8--8-8-8--| *** * * * * * * * * * *
|--------------------------------||--------------------------------||--------------------------------||-555-5-5-5-5--------------------||-555-5-5-5-5----0--0--0---------||-333-3-3-3-3----0--0--0---------||----------------0--0--0--3p.h.--| *** * * * * * * *
|------------------------------||------------------------------||------------------------------||------------------------------||-000-0-0-0-0----0-0-0--0-0-0--||-000-0-0-0-0----0-0-0--0-0-0--||-000-0-0-0-0----0-0-0--0-0-0--| *** * * * * * * * * * *
|------------------------------||------------------------------||------------------------------||------------------------------||-000-0-0-0-0----0-0-0--0-0-0--||-000-0-0-0-0----0-0-0--0-0-0--||-000-0-0-0-0----0-0-0--0-0-0--| *** * * * * * * * * * *
|------------------------------||------------------------------||------------------------------||------------------------------||-888-8-8-8-8----8-8-8--8-8-8--||-888-8-8-8-8----8-8-8--8-8-8--||-888-8-8-8-8----8-8-8--8-8-8--| *** * * * * * * * * * *
|----------------------||----------------------||----------------------||-555-5-5-5-5-5-5~~~---||-555-5-5-5-5-5-5~~~---||-333-3-3-3-3-3-3~~~---||----------------------| *** * * * *
Verse (Guitar 1)
|------------------------------||------------------------------||------------------------------||------------------------------||-000-0-0-0-0----0-0-0--0-0-0--||-000-0-0-0-0----0-0-0--0-0-0--||-000-0-0-0-0----0-0-0--0-0-0--| *** * * * * * * * * *
|-------------------------------------||-------------------------------------||-------------------------------------||-------------------------------------||-000-0-0-0-0-------------------------||-000-0-0-0-0-----------------7h8p0---||-000-0-0-0-0-0-8-0-7-0-5-(0)---------| *** * * * * * *
|------------------------------||------------------------------||------------------------------||------------------------------||-000-0-0-0-0----0-0-0--0-0-0--||-000-0-0-0-0----0-0-0--0-0-0--||-000-0-0-0-0----0-0-0--0-0-0--| *** * * * * * * * * *
|-------------------------------------||-------------------------------------||-------------------------------------||-------------------------------------||-000-0-0-0-0-------------------------||-000-0-0-0-0-----------------7h8p0---||-000-0-0-0-0-0-8-0-7-0-5-(0)---------| *** * * * * * *
|----------------------------------||----------------------------------||----------------------------------||-000-0-0----------000-0-0------5--||-000-0-0---5-7-8--000-0-0--7-8----||-000-0-0----------000-0-0---------| *** * * * * *** * * * *
|---------------------------------||---------------------------------||---------------------------------||-000-0-0--0-0--------------------||-000-0-0--0-0-------------7h8p0--||-000-0-0--0-0-8-0-7-0-5-0--------| *** * * * * * *
|----------------------------------||----------------------------------||----------------------------------||-000-0-0----------000-0-0------5--||-000-0-0---5-7-8--000-0-0--7-8----||-000-0-0----------000-0-0---------| *** * * * * *** * * * *
|---------------------------------||---------------------------------||---------------------------------||-000-0-0--0-0--------------------||-000-0-0--0-0-------------7h8p0--||-000-0-0--0-0-8-0-7-0-5-0--------| *** * * * * * *
Verse (Guitar 2)
|------------------------------||------------------------------||------------------------------||------------------------------||-000-0-0-0-0----0-0-0--0-0-0--||-000-0-0-0-0----0-0-0--0-0-0--||-000-0-0-0-0----0-0-0--0-0-0--| *** * * * * * * * * *
|-------------------------------------||-------------------------------------||-------------------------------------||-------------------------------------||-000-0-0-0-0-------------------------||-000-0-0-0-0-----------------7h8p0---||-000-0-0-0-0-0-8-0-7-0-5-(0)---------| *** * * * * * *
|------------------------------||------------------------------||------------------------------||------------------------------||-000-0-0-0-0----0-0-0--0-0-0--||-000-0-0-0-0----0-0-0--0-0-0--||-000-0-0-0-0----0-0-0--0-0-0--| *** * * * * * * * * *
|-------------------------------------||-------------------------------------||-------------------------------------||-------------------------------------||-000-0-0-0-0-----------------5h7p0---||-000-0-0-0-0---5---7---8-------------||-000-0-0-0-0-0---0---0---(0)---------| *** * * * * * *
|----------------------------------||----------------------------------||----------------------------------||-000-0-0---3-5-7--000-0-0--5-7-8--||-000-0-0----------000-0-0---------||-000-0-0----------000-0-0---------| *** * * * * *** * * * *
|---------------------------------||---------------------------------||---------------------------------||-000-0-0--0-0-------------5h7p0--||-000-0-0--0-0--------------------||-000-0-0--0-0-8-0-7-0-5-0--------| *** * * * * * *
|----------------------------------||----------------------------------||----------------------------------||-000-0-0---3-5-7--000-0-0--5-7-8--||-000-0-0----------000-0-0---------||-000-0-0----------000-0-0---------| *** * * * * *** * * * *
|-------------------------------------||-------------------------------------||-------------------------------------||-------------------------------------||-000-0-0-0-0-----------------5h7p0---||-000-0-0-0-0---5---7---8-------------||-000-0-0-0-0-0---0---0---(0)---------| *** * * * * * *
Chorus (Guitar 1)
|-------------------------------||-------------------------------||-------------------------------||-8--10----------5--10----------||-8-----8-7h8p0--5-----8-7h8p0--||-8--------------5--------------|
|----------------------------------||----------------------------------||----------------------------------||-0-0-000-000-000-5h7p5------------||-0-0-000-000-000-------8-7-5-7-8--||-0-0-000-000-000------------------| * *** *** ***
|-------------------------------||-------------------------------||-------------------------------||-8--10----------5--10----------||-8-----8-7h8p0--5-----8-7h8p0--||-8--------------5--------------|
|----------------------------------||----------------------------------||----------------------------------||-0-0-000-000-000-5h7p5------------||-0-0-000-000-000-------8-7-5-7-8--||-0-0-000-000-000------------------| * *** *** ***
|--------------------------------||--------------------------------||--------------------------------||-8----------------5-------------||-8----5---5-7-----5----7---7-8--||-8--8---8-----(0)-5--5---5------| * * * *
|----------------------------------||----------------------------------||----------------------------------||-0-0-000-000-000-5h7p5------------||-0-0-000-000-000-------8-7-5-7-8--||-0-0-000-000-000------------------| * *** *** ***
|--------------------------------||--------------------------------||--------------------------------||-8----------------5-------------||-8----5---5-7-----5----7---7-8--||-8--8---8-----(0)-5--5---5------| * * * *
Chorus (Guitar 2)
|-------------------------------||-------------------------------||-------------------------------||-8--7-----------5--7-----------||-8-----5-3h5p0--5-----5-3h5p0--||-8--------------5--------------|
|----------------------------------||----------------------------------||----------------------------------||-0-0-000-000-000-2h3p2------------||-0-0-000-000-000-------5-3-1-3-5--||-0-0-000-000-000------------------| * *** *** ***
|-------------------------------||-------------------------------||-------------------------------||-8--7-----------5--7-----------||-8-----5-3h5p0--5-----5-3h5p0--||-8--------------5--------------|
|---------------------------------------||---------------------------------------||---------------------------------------||-0-0-000-000-000-8h10p8----------------||-0-0-000-000-000--------12-10-8-10-12--||-0-0-000-000-000-----------------------| * *** *** ***
|---------------------------------||---------------------------------||---------------------------------||-8-----------------5-------------||-8----8---8-10-----5----5---5-7--||-8--8---8------(0)-5--5---5------| * * * *
|---------------------------------------||---------------------------------------||---------------------------------------||-0-0-000-000-000-8h10p8----------------||-0-0-000-000-000--------12-10-8-10-12--||-0-0-000-000-000-----------------------| * *** *** ***
|---------------------------------||---------------------------------||---------------------------------||-8-----------------5-------------||-8----8---8-10-----5----5---5-7--||-8--8---8------(0)-5--5---5------| * * * *
Verse (Guitar 1)
|------------------------------||------------------------------||------------------------------||------------------------------||-000-0-0-0-0----0-0-0--0-0-0--||-000-0-0-0-0----0-0-0--0-0-0--||-000-0-0-0-0----0-0-0--0-0-0--| *** * * * * * * * * *
|-------------------------------------||-------------------------------------||-------------------------------------||-------------------------------------||-000-0-0-0-0-------------------------||-000-0-0-0-0-----------------7h8p0---||-000-0-0-0-0-0-8-0-7-0-5-(0)---------| *** * * * * * *
|------------------------------||------------------------------||------------------------------||------------------------------||-000-0-0-0-0----0-0-0--0-0-0--||-000-0-0-0-0----0-0-0--0-0-0--||-000-0-0-0-0----0-0-0--0-0-0--| *** * * * * * * * * *
|-------------------------------------||-------------------------------------||-------------------------------------||-------------------------------------||-000-0-0-0-0-------------------------||-000-0-0-0-0-----------------7h8p0---||-000-0-0-0-0-0-8-0-7-0-5-(0)---------| *** * * * * * *
|----------------------------------||----------------------------------||----------------------------------||-000-0-0----------000-0-0------5--||-000-0-0---5-7-8--000-0-0--7-8----||-000-0-0----------000-0-0---------| *** * * * * *** * * * *
|---------------------------------||---------------------------------||---------------------------------||-000-0-0--0-0--------------------||-000-0-0--0-0-------------7h8p0--||-000-0-0--0-0-8-0-7-0-5-0--------| *** * * * * * *
|----------------------------------||----------------------------------||----------------------------------||-000-0-0----------000-0-0------5--||-000-0-0---5-7-8--000-0-0--7-8----||-000-0-0----------000-0-0---------| *** * * * * *** * * * *
|---------------------------------||---------------------------------||---------------------------------||-000-0-0--0-0--------------------||-000-0-0--0-0-------------7h8p0--||-000-0-0--0-0-8-0-7-0-5-0--------| *** * * * * * *
Verse (Guitar 2)
|------------------------------||------------------------------||------------------------------||------------------------------||-000-0-0-0-0----0-0-0--0-0-0--||-000-0-0-0-0----0-0-0--0-0-0--||-000-0-0-0-0----0-0-0--0-0-0--| *** * * * * * * * * *
|-------------------------------------||-------------------------------------||-------------------------------------||-------------------------------------||-000-0-0-0-0-------------------------||-000-0-0-0-0-----------------7h8p0---||-000-0-0-0-0-0-8-0-7-0-5-(0)---------| *** * * * * * *
|------------------------------||------------------------------||------------------------------||------------------------------||-000-0-0-0-0----0-0-0--0-0-0--||-000-0-0-0-0----0-0-0--0-0-0--||-000-0-0-0-0----0-0-0--0-0-0--| *** * * * * * * * * *
|-------------------------------------||-------------------------------------||-------------------------------------||-------------------------------------||-000-0-0-0-0-----------------5h7p0---||-000-0-0-0-0---5---7---8-------------||-000-0-0-0-0-0---0---0---(0)---------| *** * * * * * *
|----------------------------------||----------------------------------||----------------------------------||-000-0-0---3-5-7--000-0-0--5-7-8--||-000-0-0----------000-0-0---------||-000-0-0----------000-0-0---------| *** * * * * *** * * * *
|---------------------------------||---------------------------------||---------------------------------||-000-0-0--0-0-------------5h7p0--||-000-0-0--0-0--------------------||-000-0-0--0-0-8-0-7-0-5-0--------| *** * * * * * *
|----------------------------------||----------------------------------||----------------------------------||-000-0-0---3-5-7--000-0-0--5-7-8--||-000-0-0----------000-0-0---------||-000-0-0----------000-0-0---------| *** * * * * *** * * * *
|-------------------------------------||-------------------------------------||-------------------------------------||-------------------------------------||-000-0-0-0-0-----------------5h7p0---||-000-0-0-0-0---5---7---8-------------||-000-0-0-0-0-0---0---0---(0)---------| *** * * * * * *
Chorus (Guitar 1)
|-------------------------------||-------------------------------||-------------------------------||-8--10----------5--10----------||-8-----8-7h8p0--5-----8-7h8p0--||-8--------------5--------------|
|----------------------------------||----------------------------------||----------------------------------||-0-0-000-000-000-5h7p5------------||-0-0-000-000-000-------8-7-5-7-8--||-0-0-000-000-000------------------| * *** *** ***
|-------------------------------||-------------------------------||-------------------------------||-8--10----------5--10----------||-8-----8-7h8p0--5-----8-7h8p0--||-8--------------5--------------|
|----------------------------------||----------------------------------||----------------------------------||-0-0-000-000-000-5h7p5------------||-0-0-000-000-000-------8-7-5-7-8--||-0-0-000-000-000------------------| * *** *** ***
|--------------------------------||--------------------------------||--------------------------------||-8----------------5-------------||-8----5---5-7-----5----7---7-8--||-8--8---8-----(0)-5--5---5------| * * * *
|----------------------------------||----------------------------------||----------------------------------||-0-0-000-000-000-5h7p5------------||-0-0-000-000-000-------8-7-5-7-8--||-0-0-000-000-000------------------| * *** *** ***
|--------------------------------||--------------------------------||--------------------------------||-8----------------5-------------||-8----5---5-7-----5----7---7-8--||-8--8---8-----(0)-5--5---5------| * * * *
Chorus (Guitar 2)
|-------------------------------||-------------------------------||-------------------------------||-8--7-----------5--7-----------||-8-----5-3h5p0--5-----5-3h5p0--||-8--------------5--------------|
|----------------------------------||----------------------------------||----------------------------------||-0-0-000-000-000-2h3p2------------||-0-0-000-000-000-------5-3-1-3-5--||-0-0-000-000-000------------------| * *** *** ***
|-------------------------------||-------------------------------||-------------------------------||-8--7-----------5--7-----------||-8-----5-3h5p0--5-----5-3h5p0--||-8--------------5--------------|
|---------------------------------------||---------------------------------------||---------------------------------------||-0-0-000-000-000-8h10p8----------------||-0-0-000-000-000--------12-10-8-10-12--||-0-0-000-000-000-----------------------| * *** *** ***
|---------------------------------||---------------------------------||---------------------------------||-8-----------------5-------------||-8----8---8-10-----5----5---5-7--||-8--8---8------(0)-5--5---5------| * * * *
|---------------------------------------||---------------------------------------||---------------------------------------||-0-0-000-000-000-8h10p8----------------||-0-0-000-000-000--------12-10-8-10-12--||-0-0-000-000-000-----------------------| * *** *** ***
|---------------------------------||---------------------------------||---------------------------------||-8-----------------5-------------||-8----8---8-10-----5----5---5-7--||-8--8---8------(0)-5--5---5------| * * * *
Breakdown (Guitar 1)
|---------------------------------------||---------------------------------------||--------------------------------7n.h.--||-0-0-000-000-000---00-0-0-000-0--------||-0-0-000-000-000---00-0-0-000-0--------||-0-0-000-000-000---00-0-0-000-0--------| * *** *** *** ** * * *** *
|-------------------------------------||-------------------------------------||------------------------------7n.h.--||-0-000-000-000---00-0-0-000-0--------||-0-000-000-000---00-0-0-000-0--------||-0-000-000-000---00-0-0-000-0--------| * *** *** *** ** * * *** *
|---------------------------------------||---------------------------------------||---------------------------------------||-0-000-000-000---00-0-0-000-000--------||-0-000-000-000---00-0-0-000-000--------||-0-000-000-000---00-0-0-000-000--------| * *** *** *** ** * * *** ***
|-----------------------||-----------------------||-----------------------||-0-0--0-0--0-0---------||-0-0--0-0--0-0---------||-0-0--0-0--0-0--/15\---| * * * * * *
Verse (Guitar 1)
|----------------------------------||----------------------------------||----------------------------------||-000-0-0----------000-0-0------5--||-000-0-0---5-7-8--000-0-0--7-8----||-000-0-0----------000-0-0---------| *** * * * * *** * * * *
|-------------------------------||-------------------------------||-------------------------------||-000-0-0---5--888-7-5---5------||-000-0-0-8------------8---8-7--||-000-0-0-----------------------| *** *
|----------------------------------||----------------------------------||----------------------------------||-000-0-0----------000-0-0------5--||-000-0-0---5-7-8--000-0-0--7-8----||-000-0-0----------000-0-0---------| *** * * * * *** * * * *
|-----------------------------------||-----------------------------------||-----------------------------------||-000-0-0---5--888-7-5---5----------||-000-0-0-8------------8---8-7p.h.--||-000-0-0---------------------------| *** *
|----------------------------------||----------------------------------||----------------------------------||-000-0-0----------000-0-0------5--||-000-0-0---5-7-8--000-0-0--7-8----||-000-0-0----------000-0-0---------| *** * * * * *** * * * *
|-------------------------------||-------------------------------||-------------------------------||-000-0-0---5--888-7-5---5------||-000-0-0-8------------8---8-7--||-000-0-0-----------------------| *** *
|----------------------------------||----------------------------------||----------------------------------||-000-0-0----------000-0-0------5--||-000-0-0---5-7-8--000-0-0--7-8----||-000-0-0----------000-0-0---------| *** * * * * *** * * * *
|------------------------------||------------------------------||------------------------------||-000-0-0---5--8--0-0-0-0-0-0--||-000-0-0-8-------0-0-0-0-0-0--||-000-0-0---------0-0-0-0-0-0--| *** * * * * * * *
Verse (Guitar 2)
|----------------------------------||----------------------------------||----------------------------------||-000-0-0----------000-0-0------5--||-000-0-0---5-7-8--000-0-0--7-8----||-000-0-0----------000-0-0---------| *** * * * * *** * * * *
|-------------------------------||-------------------------------||-------------------------------||-000-0-0---5--888-7-5---5------||-000-0-0-8------------8---8-7--||-000-0-0-----------------------| *** *
|--------------------------------------||--------------------------------------||--------------------------------------||-000-0-0------------000-0-0--------8--||-000-0-0---8-10-12--000-0-0--10-12----||-000-0-0------------000-0-0-----------| *** * * * * *** * * * *
|------------------------------------------||------------------------------------------||------------------------------------------||-000-0-0----8--121212-10-8----8-----------||-000-0-0-12------------8---12---12-8p.h.--||-000-0-0----------------------------------| *** *
|--------------------------------------||--------------------------------------||--------------------------------------||-000-0-0------------000-0-0--------8--||-000-0-0---8-10-12--000-0-0--10-12----||-000-0-0------------000-0-0-----------| *** * * * * *** * * * *
|------------------------------------------||------------------------------------------||------------------------------------------||-000-0-0----8--121212-10-8----8-----------||-000-0-0-12------------8---12---12-8p.h.--||-000-0-0----------------------------------| *** *
|--------------------------------------||--------------------------------------||--------------------------------------||-000-0-0------------000-0-0--------8--||-000-0-0---8-10-12--000-0-0--10-12----||-000-0-0------------000-0-0-----------| *** * * * * *** * * * *
|-------------------------------||-------------------------------||-------------------------------||-000-0-0----8--12-0-0-0-0-0-0--||-000-0-0-12-------0-0-0-0-0-0--||-000-0-0----------0-0-0-0-0-0--| *** * * * * * * *
Breakdown/Bridge (Guitar 1)
|-----------------------------------||-----------------------------------||-----------------------------------||-0-0-10p0-7p0-8p0-5p0-7p0-3h5p3p0--| x16|-----------------------------------||-----------------------------------|
Breakdown/Bridge (Guitar 2)
|--------------------------------||--------------------------------||--------------------------------||-0~~~---------------0-0----0-0--||-0~~~---------------0-0----0-0--||-0~~~---------------0-0----0-0--| * * * *
|--------------------------------------||--------------------------------------||--------------------------------------||-0-0---0-0--0-0--0-0---0-0--0-0--0-0--||-0-0---0-0--0-0--0-0---0-0--0-0--0-0--||-0-0---0-0--0-0--0-0---0-0--0-0--0-0--| * * * * * * * * * * * * * *
|-----------------------||-----------------------||-----------------------||-0-0---0-0--0-0--0-0---||-0-0---0-0--0-0--0-0---||-0-0---0-0--0-0--0-0---| * * * * * * * *
|--------------------------------------||--------------------------------------||--------------------------------------||-0-0-14p0-10p0-12p0-8p0-10p0-7h8p7p0--| x8|--------------------------------------||--------------------------------------|
Breakdown/Bridge pt. 2 (Guitar 1)
|-----------------------------------||-----------------------------------||-----------------------------------||-0-0-10p0-7p0-8p0-5p0-7p0-3h5p3p0--| x7|-----------------------------------||-----------------------------------| * * * * * * * * * * * * * * * *
|------------------------||------------------------||------------------------||-0-0-10p0-7p0-8p0-5tr---| |------------------------||------------------------| * * * * * * * *
Breakdown/Bridge pt 2 (Guitar 2)
|--------------------------------------||--------------------------------------||--------------------------------------||-0-0-14p0-10p0-12p0-8p0-10p0-7h8p7p0--| x7|--------------------------------------||--------------------------------------| * * * * * * * * * * * * * * * *
|--------------------------||--------------------------||--------------------------||-0-0-14p0-10p0-12p0-8tr---| |--------------------------||--------------------------| * * * * * * * *
Chorus (Guitar 1)
|-------------------------------||-------------------------------||-------------------------------||-8--10----------5--10----------||-8-----8-7h8p0--5-----8-7h8p0--||-8--------------5--------------|
|----------------------------------||----------------------------------||----------------------------------||-0-0-000-000-000-5h7p5------------||-0-0-000-000-000-------8-7-5-7-8--||-0-0-000-000-000------------------| * *** *** ***
|-------------------------------||-------------------------------||-------------------------------||-8--10----------5--10----------||-8-----8-7h8p0--5-----8-7h8p0--||-8--------------5--------------|
|----------------------------------||----------------------------------||----------------------------------||-0-0-000-000-000-5h7p5------------||-0-0-000-000-000-------8-7-5-7-8--||-0-0-000-000-000------------------| * *** *** ***
|--------------------------------||--------------------------------||--------------------------------||-8----------------5-------------||-8----5---5-7-----5----7---7-8--||-8--8---8-----(0)-5--5---5------| * * * *
|----------------------------------||----------------------------------||----------------------------------||-0-0-000-000-000-5h7p5------------||-0-0-000-000-000-------8-7-5-7-8--||-0-0-000-000-000------------------| * *** *** ***
|--------------------------------||--------------------------------||--------------------------------||-8----------------5-------------||-8----5---5-7-----5----7---7-8--||-8--8---8-----(0)-5--5---5------| * * * *
Chorus (Guitar 2)
|-------------------------------||-------------------------------||-------------------------------||-8--7-----------5--7-----------||-8-----5-3h5p0--5-----5-3h5p0--||-8--------------5--------------|
|----------------------------------||----------------------------------||----------------------------------||-0-0-000-000-000-2h3p2------------||-0-0-000-000-000-------5-3-1-3-5--||-0-0-000-000-000------------------| * *** *** ***
|-------------------------------||-------------------------------||-------------------------------||-8--7-----------5--7-----------||-8-----5-3h5p0--5-----5-3h5p0--||-8--------------5--------------|
|---------------------------------------||---------------------------------------||---------------------------------------||-0-0-000-000-000-8h10p8----------------||-0-0-000-000-000--------12-10-8-10-12--||-0-0-000-000-000-----------------------| * *** *** ***
|---------------------------------||---------------------------------||---------------------------------||-8-----------------5-------------||-8----8---8-10-----5----5---5-7--||-8--8---8------(0)-5--5---5------| * * * *
|---------------------------------------||---------------------------------------||---------------------------------------||-0-0-000-000-000-8h10p8----------------||-0-0-000-000-000--------12-10-8-10-12--||-0-0-000-000-000-----------------------| * *** *** ***
|---------------------------------||---------------------------------||---------------------------------||-8-----------------5-------------||-8----8---8-10-----5----5---5-7--||-8--8---8------(0)-5--5---5------| * * * *
Outro (Guitar 1)
|---------------------------------------||---------------------------------------||--------------------------------7n.h.--||-0-0-000-000-000---00-0-0-000-0--------||-0-0-000-000-000---00-0-0-000-0--------||-0-0-000-000-000---00-0-0-000-0--------| * *** *** *** ** * * *** *
|---------------------------------||---------------------------------||---------------------------------||-0-000-000-000--5h7p5------------||-0-000-000-000--------8-7-5-7-8--||-0-000-000-000-------------------| * *** *** ***
|---------------------------------------||---------------------------------------||--------------------------------7n.h.--||-0-0-000-000-000---00-0-0-000-0--------||-0-0-000-000-000---00-0-0-000-0--------||-0-0-000-000-000---00-0-0-000-0--------| * *** *** *** ** * * *** *
|---------------------------------||---------------------------------||---------------------------------||-0-000-000-000--5h7p5------------||-0-000-000-000--------8-7-5-7-8--||-0-000-000-000-------------------| * *** *** ***
|------------------------------------------------||------------------------------------------------||------------------------------------------------||------------------------------------------------||--------5---5-7--------7---7-8--------8---8-10--||-0-0--0---0-----0-0--0---0-----0-0--0---0-------| * * * * * * * * *
|------------------||------------------||------------------||-5h7p5------------||-------8-7-5-7-8--||------------------|
|------------------------------------------------||------------------------------------------------||------------------------------------------------||------------------------------------------------||--------5---5-7--------7---7-8--------8---8-10--||-0-0--0---0-----0-0--0---0-----0-0--0---0-------| * * * * * * * * *
|---------------------------------||---------------------------------||---------------------------------||-5h7p5-----------0~~~------------||-------8-7-5-7-8-0~~~------------||-----------------0~~~------------|
Outro (Guitar 2)
|---------------------------------------||---------------------------------------||--------------------------------7n.h.--||-0-0-000-000-000---00-0-0-000-0--------||-0-0-000-000-000---00-0-0-000-0--------||-0-0-000-000-000---00-0-0-000-0--------| * *** *** *** ** * * *** *
|---------------------------------||---------------------------------||---------------------------------||-0-000-000-000--2h3p5------------||-0-000-000-000--------5-3-1-3-5--||-0-000-000-000-------------------| * *** *** ***
|---------------------------------------||---------------------------------------||--------------------------------7n.h.--||-0-0-000-000-000---00-0-0-000-0--------||-0-0-000-000-000---00-0-0-000-0--------||-0-0-000-000-000---00-0-0-000-0--------| * *** *** *** ** * * *** *
|--------------------------------------||--------------------------------------||--------------------------------------||-0-000-000-000--8h10p8----------------||-0-000-000-000---------12-10-8-10-12--||-0-000-000-000------------------------| * *** *** ***
|-----------------------------------------------||-----------------------------------------------||-----------------------------------------------||-----------------------------------------------||--------3---3-5--------5---5-7--------7---7-8--||-0-0--0---0-----0-0--0---0-----0-0--0---0------| * * * * * * * * *
|-----------------------||-----------------------||-----------------------||-8h10p8----------------||--------12-10-8-10-12--||-----------------------|
|-----------------------------------------------||-----------------------------------------------||-----------------------------------------------||-----------------------------------------------||--------3---3-5--------5---5-7--------7---7-8--||-0-0--0---0-----0-0--0---0-----0-0--0---0------| * * * * * * * * *
|-----------------------------------||-----------------------------------||-----------------------------------||-8h10p8----------------5n.h~~~-----||--------12-10-8-10-12--------------||-----------------------------------|
Please rate this tab:
x1.0