Misc Unsigned Bands – Goukisan - Guitar Vs Piano 12 tab

Guitar vs. Piano 1.2 - Goukisan
Taken from the Newgrounds Audio Portal, Tab by OMGx.

www.goukisan.newgrounds.com

Standard Tuning: EADGBE

First Part:|:-------------------|-------------------|-------------------||:-------------------|-------------------|-------------------||:--------2---2------|------2---4---2-0--|--------------2----||:--2-2-5---2---5-2--|--2-2---2---2------|------2---5--------||:-------------------|-------------------|--3-3---3---3---3--||:-------------------|-------------------|-------------------|
|--------------------:||--------------------:||------4---2---------:||--------------4-5---:| Play 4 times|--5-5---5---5-------:||--------------------:|
Second Part:|:-------------------|-------------------|-------------------||:-------------------|-------------------|-------------------||:------4---2-0------|--2---5---4-0------|--2-4---4-2-4------||:--------------4-5--|--------------4-2--|------2-------5-4--||:--3-3---3----------|----3---3----------|-------------------||:-------------------|-------------------|-------------------|
|-------------------|-------------------|-------------------||-------------------|-------------------|-------------------||-------------------|-------------------|-------------------||--2-2-5-2-2-4-2-2--|--2-2-5-2-2-4-2-2--|--2-2-5-2-2-4-2-2--||-------------------|-------------------|-------------------||-------------------|-------------------|-------------------|
|---------------------:||---------------------:||------2---4---2------:||--5-2---2---2---2-5--:| Play 2 times|---------------------:||---------------------:|
Third Part (this is when the drums start to come in):|--------------------|--------------------||--------------------|--------------------||--------------------|--------------------||--2----4----5----7--|--10-9-7-9-7-5-4-0--||--------------------|--------------------||--------------------|--------------------|
|--------------------|--------------------||--------------------|--------------------||--------------------|--------------------||--2-2-5-2-2-4-2-2---|--2-2-5-2-2-4-2-2---||--------------------|--------------------||--------------------|--------------------|
|--------------------|--------------------||--------------------|--------------------||--------------------|---------7-5-4------||--2----4----5----7--|--10-9-7-------4-5--||--------------------|--------------------||--------------------|--------------------|
|--------------------|--------------------||--------------------|--------------------||--------------------|--------------------||--2-2-5-2-2-4-2-2---|--2-2-5-2-2-4-2-2---||--------------------|--------------------||--------------------|--------------------|
Fourth Part:|--------------------|--------------------||--------------------|--------------------||----------------2---|--4-0---4-2---0-2---||--5-----5---2-5-----|------2-----2-------||----3-3---3---------|--------------------||--------------------|--------------------|
|--------------------|--------------------||--------------------|--------------------||----------------2---|--4-2-4-5-4-0---0---||--5-----5---2-5-----|--------------4-----||----3-3---3---------|--------------------||--------------------|--------------------|
|--------------------|--------------------||--------------------|--------------------||--------------------|--2-----0-----------||--5-----5---0-2-4---|------------0-2-4---||----3-3---3---------|----3-3---3---------||--------------------|--------------------|
|--------------------|--------------------||--------------------|--------------------||--2-----4-----------|--4-----5---4---2---||------------2-4-5---|--------------------||----3-3---3---------|----3-3---3---------||--------------------|--------------------|
|--------------------|--------------------||--------------------|--------------------||--------------------|--------------------||--5-----5---5-4-5---|--5-----5---5-4-0---||----3-3---3---------|----3-3---3---------||--------------------|--------------------|
First Part (Piano enters on third repeat):|:-------------------|-------------------|-------------------||:-------------------|-------------------|-------------------||:--------2---2------|------2---4---2-0--|--------------2----||:--2-2-5---2---5-2--|--2-2---2---2------|------2---5--------||:-------------------|-------------------|--3-3---3---3---3--||:-------------------|-------------------|-------------------|
|--------------------:||--------------------:||------4---2---------:||--------------4-5---:| Play 8 times|--5-5---5---5-------:||--------------------:|
Piano Solo..... (guitar re-enters at around 2:39, so get ready before then)
|:--------------------|--------------------||:--------3-5-3-------|--8----6----5----6--||:--2-4-5-------5-----|--------------------||:--------------------|--------------------||:--------------------|--------------------||:--------------------|--------------------|
|--------------------|-----------------------||--5---5-------------|--5----5----6-5--------||--------7-5-4-5-7---|----------------7-4-5--||--------------------|-----------------------||--------------------|-----------------------||--------------------|-----------------------|
|--------------------|--------------------||--------3-5-3-------|--6----5----3----6--||--2-4-5-------5-----|--------------------||--------------------|--------------------||--------------------|--------------------||--------------------|--------------------|
|--------------------|-----------------------:||--5--5-5-6-5--------|--5----5----6-5--------:||-------------7-5-7--|----------------7-4-5--:||--------------------|-----------------------:| Play 4 times|--------------------|-----------------------:||--------------------|-----------------------:|
Break.... (You'll have to listen to it a couple of times to get it right) Then this bar....
|-------------------||--3-5-3------------||--------5-4-5-4-0--||-------------------||-------------------||-------------------|
Back to this part....
Second Part:|:-------------------|-------------------|-------------------||:-------------------|-------------------|-------------------||:------4---2-0------|--2---5---4-0------|--2-4---4-2-4------||:--------------4-5--|--------------4-2--|------2-------5-4--||:--3-3---3----------|----3---3----------|-------------------||:-------------------|-------------------|-------------------|
|-------------------|-------------------|-------------------||-------------------|-------------------|-------------------||-------------------|-------------------|-------------------||--2-2-5-2-2-4-2-2--|--2-2-5-2-2-4-2-2--|--2-2-5-2-2-4-2-2--||-------------------|-------------------|-------------------||-------------------|-------------------|-------------------|
|---------------------:||---------------------:||------2---4---2------:||--5-2---2---2---2-5--:| Play 2 times|---------------------:||---------------------:|
Third Part (drums play same part as before):|--------------------|--------------------||--------------------|--------------------||--------------------|--------------------||--2----4----5----7--|--10-9-7-9-7-5-4-0--||--------------------|--------------------||--------------------|--------------------|
|--------------------|--------------------||--------------------|--------------------||--------------------|--------------------||--2-2-5-2-2-4-2-2---|--2-2-5-2-2-4-2-2---||--------------------|--------------------||--------------------|--------------------|
|--------------------|--------------------||--------------------|--------------------||--------------------|---------7-5-4------||--2----4----5----7--|--10-9-7-------4-5--||--------------------|--------------------||--------------------|--------------------|
|--------------------|--------------------||--------------------|--------------------||--------------------|--------------------||--2-2-5-2-2-4-2-2---|--2-2-5-2-2-4-2-2---||--------------------|--------------------||--------------------|--------------------|
Fourth Part:|--------------------|--------------------||--------------------|--------------------||----------------2---|--4-0---4-2---0-2---||--5-----5---2-5-----|------2-----2-------||----3-3---3---------|--------------------||--------------------|--------------------|
|--------------------|--------------------||--------------------|--------------------||----------------2---|--4-2-4-5-4-0---0---||--5-----5---2-5-----|--------------4-----||----3-3---3---------|--------------------||--------------------|--------------------|
|--------------------|--------------------||--------------------|--------------------||--------------------|--2-----0-----------||--5-----5---0-2-4---|------------0-2-4---||----3-3---3---------|----3-3---3---------||--------------------|--------------------|
|--------------------|--------------------||--------------------|--------------------||--2-----4-----------|--4-----5---4---2---||------------2-4-5---|--------------------||----3-3---3---------|----3-3---3---------||--------------------|--------------------|
|--------------------|--------------------||--------------------|--------------------||--------------------|--------------------||--5-----5---5-4-5---|--5-----5---5-4-0---||----3-3---3---------|----3-3---3---------||--------------------|--------------------|
First Part (nearly there...):|:-------------------|-------------------|-------------------||:-------------------|-------------------|-------------------||:--------2---2------|------2---4---2-0--|--------------2----||:--2-2-5---2---5-2--|--2-2---2---2------|------2---5--------||:-------------------|-------------------|--3-3---3---3---3--||:-------------------|-------------------|-------------------|
|--------------------:||--------------------:||------4---2---------:||--------------4-5---:| Play 8 times|--5-5---5---5-------:||--------------------:|
And you're done! Thanks to Goukisan, Newgrounds (and SC Guitar Maniac 2 for getting me into the song!) you, I guess for playing it. XP
Please rate this tab:
x1.0