Misc Wwf - Wwf Themes Part2 tab

WWF,WWF Themes.
Tabbed by Charles,Kane691@hotmail.com.
  
Author/Artist: WWF 
Title: WWf Themes 
Transcribed by: Charles Young
Email : Kane691@hotmail.com

Ok here is a new load of my tabs....

Degeneratoin X (old)

The new one should be simple to figure out.. just 
a little palm muting here and there

--------------------------------------------------------------------------------------------------------------4-2-------4-2-2-4-4-----4-2--------------------------2-0-------2-0-0-2-2-----2-0---4-4-5-5-------------2--------2-2-----------2-2-----2-2-2-3-3-2-2-5-5-----0--------0-0-----------0-0-----0---------2-2-3-3---- (--------------------3X------------------------)
----------------------------------------------------------------------------------4-2-4---------------4---2-4-------------2-0-2--4-5----------2---0-2-5-4-------2--------2-3-4-5---2----------3-2-5-4-2-0------------2-3---0--------------3-2-0-(-------------Chorus--------------)
Undertaker (original)
-12----12----12--10----15----14--14----12--12----11--12v--12----12----12--12----12----12--12----12--12----12--12v--12--------------12----12--------12--------12--------12v----------------------------------------------------------------------------------------------------------------------------------------------------------------------------
-12----------10--12--10----------12--10--15--14--12--10------10--12--------------12--10------------------12------12--------------14----------------------------------------------------------------------10-------------------------------------------------------------------------------------------------------------------------------------
-----------------------------------------7--7--7--7---15-12------10---------------10--------------------------12-----12------12--11---12------12--11--9--9--8--9--11-------------10---------------10--------------------------------------------------------------------------------------------------------------------------------------------
-14--12--10--15--14--12--10--15--14--12----------------12--------------12-----------------------------------------------------------------------------------------------------------------------------------------------------------------------------------
-17--15--14--12--10--12----------10--12--10------------------12------------------10--12--------------12--10--12v-----------------------------------------------------12v------------------------------------------------------------------------------------------------------------------------------------------------------------------------
Bossman (SUX)
--------------------------------------------------------------- ---444-5-4---222-111----222-3-2---000-333----------------------
Acolytes------------------------------------------------------------ Then just some cool wah wah pedal stuff-1-12-21-12123-------3-34-43-34345--------------------------
Edge And Christian
Main Riff----------------------- ----------------------- ----3-2-0-------------- ----5-4-04-74-74-74-04- ---------2-52-52-52-02------------------------
the rest of the song is just this chord stummed.. figure out strummingby listening to the songBm----------4------4------4------2----------
Godfather (old) This is the cool bit at the beggining, it can be played almost anywhere on the guitar, and i stumbled upon it when i was mucking around
-----------------------------------------------14^-12-14^-12-14-12------------------------------------------------------------------
Dudleyz This is a pretty bad version, but i'll post it anyway!
-----------------------------------------------------------------------------------------------------------------2---2--2-----2-2---444-555---------------------------2---2--2-----2-2-------------------------------------2---2--2-----2-2---------------------------------0-0----0--0---0-0---------------------------------
While we're on the subject of bad tabs..... Hardyz
----------------------------------------------------4-5--40---0-203-020-
Raw Is War
--------------------------------------------------------------------------------------------------------- Repeat ? times-----------------------------------00004p(0)03000000004p(0)0500007-7--00002p(0)05000000002p(0)0300005-5--
Heres one im playing around with at the moment... Chris Benoit
-------------------------------------------------------------------------------------------------------------------------44444--44444-2-44444-44444-2--22222--22222-0-22222-22222-0- <-Palm Mute->
Well there you have it more WWF themes... Sorry they are so crap, anyway.... hAvE a NiCe DaY! :) Charles Kane691@hotmail.com P.s Remember, could someone please help me with Kanes Theme? :: Ultimate Guitar Archive :: http://www.ultimate-guitar.com
Tap to rate this tab
 
# A B C D E F G H I J K L M N O P Q R S T U V W X Y Z