Misc - Dan Dan Kokoro Hikareteru Dragon Ball Gt Opening tab

Its my first tab this is the Complete Song rate it

Tabbed by: Socra XD

Intro

--3-3-----3-5-3------------------------------------|------5-6-------6-5----5-5-----5-6-5---------------|---------------------7-----5-7------7-5-4-2--------|---------------------------------------------------|---------------------------------------------------|---------------------------------------------------|
-----5-3-------------------------------------------|-----------3-5-6-5-3---5--1-0-1--------------------|-2-5-----5-----------5-----------------------------|---------------------------------------------------|---------------------------------------------------|---------------------------------------------------|
Middle Part---8-8-8-8-8-6-4-6-8-6--6-6-6-6-6-4-3-4-6-4--------|-1-------------------------------------------------|---------------------------------------------------|---------------------------------------------------|---------------------------------------------------|---------------------------------------------------|
-4-4-4-3---3---------3--3-4-6-8--8-8-8-8-8-6-4-6-8-6-|---------6---6-6-4-6---------------------------------|-----------------------------------------------------|-----------------------------------------------------|-----------------------------------------------------|-----------------------------------------------------|
-6-6-8-10-10-11-6-4-3-4--4-6-4-3-3--3-15-13-12-----|---------------------------------------------------|---------------------------------------------------|---------------------------------------------------|---------------------------------------------------|---------------------------------------------------|
-12-13-12-11---4-6-8-8-8-8-8-8-6-10-8-6-4-3-3-3-3-3-3-|------------------------------------------------------|------------------------------------------------------|------------------------------------------------------|------------------------------------------------------|------------------------------------------------------|
-3-4-6-8-10--10-8-10-10-10-10-8--10-12--12-12-10-12-14--|b--------------------------------------------------------|--------------------------------------------------------|--------------------------------------------------------|--------------------------------------------------------|--------------------------------------------------------|
END
--3-3-----3-5-3------------------------------------|------5-6-------6-5----5-5-----5-6-5---------------|---------------------7-----5-7------7-5-4-2--------|---------------------------------------------------|---------------------------------------------------|---------------------------------------------------|
-----5-3-------------------------------------------|-----------3-5-6-5-3---5--5-6-3--------------------|-2-5-----5-----------5-----------------------------|---------------------------------------------------|---------------------------------------------------|---------------------------------------------------|
--3-3-----3-5-3------------------------------------|------5-6-------6-5----5-5-----5-6-5---------------|---------------------7-----5-7------7-5-4-2--------|---------------------------------------------------|---------------------------------------------------|---------------------------------------------------|
-----5-3-------------------------------------------|-----------3-5-6-5-3---3--1-0-1--------------------|-2-5-----5-----------5-----------------------------|---------------------------------------------------|---------------------------------------------------|---------------------------------------------------|
Tap to rate this tab
 
# A B C D E F G H I J K L M N O P Q R S T U V W X Y Z