Misc – Blues Exercises 5 tab

5th of 10

E||-----------------------------|-----------------------------|B||--------7--5-----------------|--------7--5-----------------|G||--------6--4-----------------|--------6--4-----------------|D||--------7--5--------------2--|--------7--5--------------2--|A||--0--0--------0--0--3h-4-----|--0--0--------0--0--3h-4-----|E||-----------------------------|-----------------------------|
-----------------------------|-----------------------------|--------7--5-----------------|--------7--5-----------------|--------6--4-----------------|--------6--4-----------------|--------7--5--------------2--|--------7--5--------------2--|--0--0--------0--0--3h-4-----|--0--0--------0--0--3h-4-----|-----------------------------|-----------------------------|
--------7--5-----------------|--------7--5-----------------|--------7--5-----------------|--------7--5-----------------|--------7--5--------------2--|--------7--5--------------2--|--0--0--------0--0--3h-4-----|--0--0--------0--0--3h-4-----|-----------------------------|-----------------------------|-----------------------------|-----------------------------|
-----------------------------|-----------------------------|--------7--5-----------------|--------7--5-----------------|--------6--4-----------------|--------6--4-----------------|--------7--5--------------2--|--------7--5--------------2--|--0--0--------0--0--3h-4-----|--0--0--------0--0--3h-4-----|-----------------------------|-----------------------------|
--------9--7-----------------|--------7--5-----------------|--------9--7-----------------|--------7--5-----------------|--------9--7-----------------|--------7--5--------------2--|-----------------------------|--0--0--------0--0--3h-4-----|--------------------------2--|-----------------------------|--0--0--------0--0--3h-4-----|-----------------------------|
-----------------------------------|--------------------------|-----------------------------------|--------------------------|-----------2--------2--------2-----|--------------------------|--------5-----5--4-----4--3-----3--|--2--0--1--2--------------|--0--0-----------------------------|--------------------------|-----------------------------------|--------------0--0--0--0--|
-----------------------------|-----------------------------|--------7--5-----------------|--------7--5-----------------|--------6--4-----------------|--------6--4-----------------|--------7--5--------------2--|--------7--5--------------2--|--0--0--------0--0--3h-4-----|--0--0--------0--0--3h-4-----|-----------------------------|-----------------------------|
-----------------------------|-----------------------------|--------7--5-----------------|--------7--5-----------------|--------6--4-----------------|--------6--4-----------------|--------7--5--------------2--|--------7--5--------------2--|--0--0--------0--0--3h-4-----|--0--0--------0--0--3h-4-----|-----------------------------|-----------------------------|
--------7--5-----------------|--------7--5-----------------|--------7--5-----------------|--------7--5-----------------|--------7--5--------------2--|--------7--5--------------2--|--0--0--------0--0--3h-4-----|--0--0--------0--0--3h-4-----|-----------------------------|-----------------------------|-----------------------------|-----------------------------|
-----------------------------|-----------------------------|--------7--5-----------------|--------7--5-----------------|--------6--4-----------------|--------6--4-----------------|--------7--5--------------2--|--------7--5--------------2--|--0--0--------0--0--3h-4-----|--0--0--------0--0--3h-4-----|-----------------------------|-----------------------------|
--------9--7-----------------|--------7--5-----------------|--------9--7-----------------|--------7--5-----------------|--------9--7-----------------|--------7--5--------------2--|-----------------------------|--0--0--------0--0--3h-4-----|--------------------------2--|-----------------------------|--0--0--------0--0--3h-4-----|-----------------------------|
--------------------------|-----0--2--3----------||--------5-----4-----3-----|--2--------2----------||--------6-----5-----4-----|--2--------2----------||--------5-----4-----3-----|--2--------2----------||--0--0--------------------|-----------0----------||-----------0-----0-----0--|----------------------||
Please rate this tab:
x1.0