Misc - Blues Exercises 7 tab

7th of 10

E||------------------------|-----------------------------|B||---------------7--5-----|--------3--2--------7--5-----|G||---------------7--5h-6--|--------2--2--------7--5h-6--|D||------------7-----------|--7-----4--2-----7-----------|A||------------------------|-----0--------0--------------|E||------------------------|-----------------------------|
-----------------------------|-----------------------------|--------3--2--------7--5-----|--------3--2--------7--5-----|--------2--2--------7--5h-6--|--------2--2--------7--5h-6--|--7-----4--2-----7-----------|--7-----4--2-----7-----------|-----0--------0--------------|-----0--------0--------------|-----------------------------|-----------------------------|
-----------------------------------|-----------------------------------|-----------------------------------|-----3h-1-----1--------------------|-----------------------------------|-----------2-----2h-0--------------|--7h-5--------------------------2--|--0--------------------2--1h-0-----|--------7--6h-5-----0--0--3h-4-----|--------------------------------3--|-----------------8-----------------|-----------------------------------|
--------------------0--------------|-----------------------------|-----3h-1-----1h-3-----3h-1-----1--|--------3--2--------7--5-----|-----------2-----------------2-----|--------2--2--------7--5h-6--|--0--------------------------------|--------4--2-----7-----------|-----------------------------------|--0--0--------0--------------|-----------------------------------|-----------------------------|
--------------------------|--------------0-----------------|--------3--2--------------|-----------------3h-0-----------|--------2--2--------------|--------0h-1-----------1--------|--7-----4--2--------0--1--|--2--4--------------------2--1--|-----0--------0--4--------|--------------------------------|--------------------------|--------------------------------|
--------------------0--------------|-----------------------------------|-----3h-1-----1h-3-----3h-1-----1--|-----------------------------------|-----------2-----------------2-----|-----------2--------2--------2-----|--0--------------------------------|--------5-----5--4-----4--3-----3--|-----------------------------------|--0--0-----------------------------|-----------------------------------|-----------------------------------|
-----------------------------|-----------------------------|--------------------7--5-----|--------3--2--------7--5-----|--------------------7--5h-6--|--------2--2--------7--5h-6--|--2--0--1--2-----7-----------|--7-----4--2-----7-----------|-----------------------------|-----0--------0--------------|--------------0--------------|-----------------------------|
-----------------------------|-----------------------------|--------3--2--------7--5-----|--------3--2--------7--5-----|--------2--2--------7--5h-6--|--------2--2--------7--5h-6--|--7-----4--2-----7-----------|--7-----4--2-----7-----------|-----0--------0--------------|-----0--------0--------------|-----------------------------|-----------------------------|
-----------------------------------|-----------------------------------|-----------------------------------|-----3h-1-----1--------------------|-----------------------------------|-----------2-----2h-0--------------|--7h-5--------------------------2--|--0--------------------2--1h-0-----|--------7--6h-5-----0--0--3h-4-----|--------------------------------3--|-----------------8-----------------|-----------------------------------|
--------------------0--------------|-----------------------------|-----3h-1-----1h-3-----3h-1-----1--|--------3--2--------7--5-----|-----------2-----------------2-----|--------2--2--------7--5h-6--|--0--------------------------------|--------4--2-----7-----------|-----------------------------------|--0--0--------0--------------|-----------------------------------|-----------------------------|
--------------------------|--------------0-----------------|--------3--2--------------|-----------------3h-0-----------|--------2--2--------------|--------0h-1-----------1--------|--7-----4--2--------0--1--|--2--4--------------------2--1--|-----0--------0--4--------|--------------------------------|--------------------------|--------------------------------|
--------------------0--------------|-----------------------------------|-----3h-1-----1h-3-----3h-1-----1--|-----------------------------------|-----------2-----------------2-----|-----------2--------2--------2-----|--0--------------------------------|--------5-----5--4-----4--3-----3--|-----------------------------------|--0--0-----------------------------|-----------------------------------|-----------------------------------|
--------------------------||--------------------------||-----------------6--------||--2--------2--4--5--------||-----3h-4--------0--------||--------------------------||
Tap to rate this tab
 
# A B C D E F G H I J K L M N O P Q R S T U V W X Y Z