Misc – Speed Practice tab

E||--------------------------|--------------------------|B||--------------------------|--------------------------|G||--------------------------|--------------5--6--7--8--|D||--------------------------|--5--6--7--8--------------|A||--------------5--6--7--8--|--------------------------|E||--5--6--7--8--------------|--------------------------|
---------------------------|---------------7--8--9--10--|---------------------------|--7--8--9--10---------------|--9--8--7--6--7--8--9--10--|----------------------------|---------------------------|----------------------------|---------------------------|----------------------------|---------------------------|----------------------------|
--11--10--9--8----------------|------------------------------|----------------11--10--9--8--|------------------------------|------------------------------|--11--10--9--8----------------|------------------------------|----------------11--10--9--8--|------------------------------|------------------------------|------------------------------|------------------------------|
---------------------------|--------------------------|---------------------------|--------------------------|---------------------------|--------------------------|--7--8--9--10--9--8--7--6--|--------------------------|---------------------------|--9--8--7--6--------------|---------------------------|--------------9--8--7--6--|
--------------------------|--------------------------|--------------------------|--------------------------|--------------------------|--------------5--6--7--8--|--------------------------|--5--6--7--8--------------|--------------5--6--7--8--|--------------------------|--5--6--7--8--------------|--------------------------|
---------------------------|---------------7--8--9--10--|---------------------------|--7--8--9--10---------------|--9--8--7--6--7--8--9--10--|----------------------------|---------------------------|----------------------------|---------------------------|----------------------------|---------------------------|----------------------------|
--11--10--9--8----------------|------------------------------|----------------11--10--9--8--|------------------------------|------------------------------|--11--10--9--8----------------|------------------------------|----------------11--10--9--8--|------------------------------|------------------------------|------------------------------|------------------------------|
---------------------------|--------------------------|---------------------------|--------------------------|---------------------------|--------------------------|--7--8--9--10--9--8--7--6--|--------------------------|---------------------------|--9--8--7--6--------------|---------------------------|--------------9--8--7--6--|
--------------------------|--------------------------|--------------------------|--------------------------|--------------------------|--------------5--6--7--8--|--------------------------|--5--6--7--8--------------|--------------5--6--7--8--|--------------------------|--5--6--7--8--------------|--------------------------|
---------------------------|---------------7--8--9--10--|---------------------------|--7--8--9--10---------------|--9--8--7--6--7--8--9--10--|----------------------------|---------------------------|----------------------------|---------------------------|----------------------------|---------------------------|----------------------------|
--11--10--9--8----------------|------------------------------|----------------11--10--9--8--|------------------------------|------------------------------|--11--10--9--8----------------|------------------------------|----------------11--10--9--8--|------------------------------|------------------------------|------------------------------|------------------------------|
---------------------------|--------------------------|-------------------|---------------------------|--------------------------|-------------------|---------------------------|--------------------------|--7----------------|--7--8--9--10--9--8--7--6--|--------------------------|--8----------------|---------------------------|--9--8--7--6--------------|--8----------------|---------------------------|--------------9--8--7--6--|--6----------------|
----------------------------------|----------------------------7-8-9-10-|----------------------------------|-------------------7-8-9-10----------|--------------------------5-6-7-8-|--9-8-7-6-7-8-9-10-------------------|------------------5-6-7-8---------|-------------------------------------|----------5-6-7-8-----------------|-------------------------------------|--5-6-7-8-------------------------|-------------------------------------|
--11-10-9-8-------------------------------|------------11-10-9-8---------------------|----------------------11-10-9-8-----------|--------------------------------11-10-9-8-|------------------------------------------|------------------------------------------|
-----------------------------------|----------------------------------|-----------------------------------|----------------------------------|-----------------------------------|--------------------------5-6-7-8-|--7-8-9-10-9-8-7-6-----------------|------------------5-6-7-8---------|-------------------9-8-7-6---------|----------5-6-7-8-----------------|---------------------------9-8-7-6-|--5-6-7-8-------------------------|
----------------------------7-8-9-10-|-------------------7-8-9-10----------|--9-8-7-6-7-8-9-10-------------------|-------------------------------------|-------------------------------------|-------------------------------------|
--11-10-9-8-------------------------------|------------11-10-9-8---------------------|----------------------11-10-9-8-----------|--------------------------------11-10-9-8-|------------------------------------------|------------------------------------------|
-----------------------------------|----------------------------------|-----------------------------------|----------------------------------|-----------------------------------|--------------------------5-6-7-8-|--7-8-9-10-9-8-7-6-----------------|------------------5-6-7-8---------|-------------------9-8-7-6---------|----------5-6-7-8-----------------|---------------------------9-8-7-6-|--5-6-7-8-------------------------|
----------------------------7-8-9-10-|-------------------7-8-9-10----------|--9-8-7-6-7-8-9-10-------------------|-------------------------------------|-------------------------------------|-------------------------------------|
--11-10-9-8-------------------------------|------------11-10-9-8---------------------|----------------------11-10-9-8-----------|--------------------------------11-10-9-8-|------------------------------------------|------------------------------------------|
-----------------------------------|-------------------|-----------------------------------|-------------------|-----------------------------------|--7----------------|--7-8-9-10-9-8-7-6-----------------|--8----------------|-------------------9-8-7-6---------|--8----------------|---------------------------9-8-7-6-|--6----------------|
Please rate this tab:
x1.0