Misfits – The Devils Rain tab

Artist:    Misfits
Song:      The Devil's Rain
Album:     The Devil's Rain
Tabbed by: xHellbound

Tuning: Half-step down


It's pouring down, it's come for you!


Intro

|---------------------------------------||---------------------------------------||---------------------------------------||--6-6-6-6-6-6-6-6-6-6-6-6-6-6-6-6-6-6--||--4-4-4-4-4-4-4-4-4-4-4-4-4-4-4-4-4-4--||---------------------------------------|
|---------------------------------------||---------------------------------------||---------------------------------------||--6-6-6-6-6-6-6-6-6-6-6p4-6p4-6p4-6~~--||--4-4-4-4-4-4-4-4-4-4-4-4-4-4-4-4-4~~--||---------------------------------------|
Verse x2
|---------------------------------------||---------------------------------------||---------------------------------------||--6-6-6-6-6-6-6-6-6-6-6-6-6-6-6-6-6-6--||--4-4-4-4-4-4-4-4-4-4-4-4-4-4-4-4-4-4--||---------------------------------------| PM.....................................
|---------------------------------------||---------------------------------------||---------------------------------------||--6-6-6-6-6-6-6-6-6-6-6-6-6-6-6-6-6-6--||--4-4-4-4-4-4-4-4-4-4-4-4-4-4-4-4-4-4--||---------------------------------------| PM.....................................
|---------------------------------------||---------------------------------------||---------------------------------------||--9~~--------------9~~-----------------||--7~~--------------7~~-----------------||--0~~--------------0~~-----------------|
|---------------------------------------||---------------------------------------||---------------------------------------||--6-6-6-6-6-6-6-6-6-6-6p4-6p4-6p4-6~~--||--4-4-4-4-4-4-4-4-4-4-4-4-4-4-4-4-4~~--||---------------------------------------|
Break
|-------------------||-------------------||-------------------||--9---9-9-9-9-11/--||--7---7-7-7-7--9/--||--0---0-0-0-0------|
Intro Verse x2
*Alternate ending|---------------------------------------||---------------------------------------||---------------------------------------||--6-6-6-6-6-6-6-6-6-6-6-6-6-6-6-6-6-6--||--4-4-4-4-4-4-4-4-4-4-4-4-4-4-4-4-4-4--||---------------------------------------|
Chorus
|---------------------------------------------------------||---------------------------------------------------------||---------------------------------------------------------||---9--9--9--9--9--9--9--9--9--9--9--9--9--9--9--9--9--9--||---7--7--7--7--7--7--7--7--7--7--7--7--7--7--7--7--7--7--||---0--0--0--0--0--0--0--0--0--0--0--0--0--0--0--0--0--0--|
|---------------------------------------------------------||---------------------------------------------------------||---------------------------------------------------------||--11-11-11-11-11-11-11-11-11-11-11-11-11-11-11-11-11-11--||---9--9--9--9--9--9--9--9--9--9--9--9--9--9--9--9--9--9--||---------------------------------------------------------|
|---------------------------------------------------------||---------------------------------------------------------||---------------------------------------------------------||---6--6--6--6--6--6--6--6--6--6--6--6--6--6--6--6--6--6--||---4--4--4--4--4--4--4--4--4--4--4--4--4--4--4--4--4--4--||---------------------------------------------------------|
|-------------------||-------------------||-------------------||--9---9-9-9-9-11/--||--7---7-7-7-7--9/--||--0---0-0-0-0------|
Solo Rhythm - Intro & Verse x2 Intro to Solo
|------------------------------------||------------------------------------||--9------------------9--------------||----11-11-9-11-9~------11-11-9-11~--||------------------------------------||------------------------------------|
Chorus until end
Please rate this tab:
x1.0