Misfits - Horror Business tab

Horror Business
Tabbed By: Wayo

punkswayo@hotmail.com


Intro


-----------------------------|-----------------------------|-----------------------------|----9----8----6--------------|----9----8----6--------------|----7----6----4--------------|
---------------------------------------|---------------------------------------|---------------------------------------|----6-------9----8----6----------------| x6----6-------9----8----6----------------|----4-------7----6----4----------------|
---------------------------------------------------------------|---------------------------------------------------------------|---------------------------------------------------------------|----9------8-----11--------------------------------------------|----9------8-----11--------------------------------------------|----7------6-----9---------------------------------------------|
---------------------------------------|---------------------------------------|---------------------------------------|----6-------9----8----6----------------| x6----6-------9----8----6----------------|----4-------7----6----4----------------|
---------------------------------------------------------------|---------------------------------------------------------------|---------------------------------------------------------------|----9------8-----11--------------------------------------------|----9------8-----11--------------------------------------------|----7------6-----9---------------------------------------------|
-----------------------------------------|-----------------------------------------|-----------------------------------------|----13-----11-----9-----11---------------| x4----13-----11-----9-----11---------------|----11-----9------7-----9----------------|
---------------------------------------|---------------------------------------|---------------------------------------|----6-------9----8----6----------------| x6----6-------9----8----6----------------|----4-------7----6----4----------------|
---------------------------------------------------------------|---------------------------------------------------------------|---------------------------------------------------------------|----9------8-----11--------------------------------------------|----9------8-----11--------------------------------------------|----7------6-----9---------------------------------------------|
---------------------------------------|---------------------------------------|---------------------------------------|----6-------9----8----6----------------| x6----6-------9----8----6----------------|----4-------7----6----4----------------|
---------------------------------------------------------------|---------------------------------------------------------------|---------------------------------------------------------------|----9------8-----11--------------------------------------------|----9------8-----11--------------------------------------------|----7------6-----9---------------------------------------------|
-----------------------------------------|-----------------------------------------|-----------------------------------------|----13-----11-----9-----11---------------| x5----13-----11-----9-----11---------------|----11-----9------7-----9----------------|
Solo
-----------------------------------------|----9---x10-----12---x10-----13---x10----|-----------------------------------------|-----------------------------------------|-----------------------------------------|-----------------------------------------|
-----------------------------------------|----9-9-9-9-------12-12-12-12------------|-----------------------------------------|-----------------------------------------| x10-----------------------------------------|-----------------------------------------|
-----------------------------------------|-----------------------------------------|-----------------------------------------|----13-----11-----9-----11---------------| x2----13-----11-----9-----11---------------|----11-----9------7-----9----------------|
Horror Business too much horror business drivin' late at night psycho '78 my bathroom is new you, you go in the bathroom with me psycho '78 12 o'clock, don't be late all this horror business mirrors are black you don't go in the bathroom with me with you i'll put a knife right you i'm warning you i'll put a knife right in you i'm warning you i'll put a knife right you too much horror business drivin' late at night psycho '78 my bathroom is new for you you don't go in the bathroom with me psycho '78 i'm talkin' about 12 o'clock, don't be i say, all this horror business my mirrors are black for you you, you don't go in the with me with you i'll put a knife right in you i'm warning you i'll put a right in you i'm warning you i'll put a knife right in you i'm warning you i'll put a right in you i'm warning you you, nobody can do what i can do, no
Tap to rate this tab
 
# A B C D E F G H I J K L M N O P Q R S T U V W X Y Z