Miss May I - Arms Of The Messiah tab

Well I tried submitting this in a Tux Guitar thing but it said it 
was the wrong format something...so I just tabbed it out...which 
took me a hell of a lot time to do so please rate and/or comment 
and tell me what you think, and if I got something wrong feel free 
to correct me...I can't figure out the solo yet but I'm working on it...
Btw if you know where I can get Guitar Pro for free let me know and 
I'll make this tab into a Guitar Pro file since this website 
doesn't know what Tux Guitar is. :/
And sorry if it's hard to read, this is my first tab...
Enjoy! :D

Palm mute - (.)
Hammer on - (h)
Pull off - (p)
Tremolo pick - (t)
Let it ring - (~)

Drop C - CGCFAD





Guitar 1&2Play the first two measures 2 times...|---------------------------------------------------------------||---------------------------------------------------------------||---------------------------------------------------------------||---------------------------------------------------------------||----------------------------------------------------3h6--------||------------------------------------------------3h6-----4h5p4--||5h8-0-0-0-0-4h7-0-0-0-0-1h4-0-0-0-0-4h7-0-0-3h6----------------| . . . . . . . . . . . . . .
|-----------------------------------------------||-----------------------------------------------||-----------------------------------------------||-----------------------------------------------||-----------------------------------------------||-----------------------------------------------||5h8-0-0-0-0-4h7-0-0-0-0-1h4-0-0-0---0-0-0-0-0-0| . . . . . . . . . . . . . . . . .
Guitar 1|---------------------------------------------------------------||---------------------------------------------------------------||---------------------------------------------------------------||---------------------------------------------------------------||----------------------------------------------------3h6--------||------------------------------------------------3h6-----4h5p4--||5h8-0-0-0-0-4h7-0-0-0-0-1h4-0-0-0-0-4h7-0-0-3h6----------------| . . . . . . . . . . . . . .
|-------------------------------------------------||-------------------------------------------------||-------------------------------------------------||-------------------------------------------------||-------------------------------------------------||------------------------------------------------0||5h8-0-0-0-0-4h7-0-0-0-0-1h4-0-0-0-0-4h7-0-0-0-0-0| . . . . . . . . . . . . . . . . .
Guitar 2|---------------------------------------------------------------------||---------------------------------------------------------------------||---------------------------------------------------------------------||---------------------------------------------------------7h10--------||----------------------------------------------------7h10------8h9p8--||9h12-0-0-0-0-8h11-0-0-0-0-5h8-0-0-0-0-8h11-0-0-7h10------------------| . . . . . . . . . . . . . .
|----------------------------------------------------||----------------------------------------------------||----------------------------------------------------||----------------------------------------------------||----------------------------------------------------||---------------------------------------------------0||9h12-0-0-0-0-8h11-0-0-0-0-5h8-0-0-0-0-8h11-0-0-0-0-0| . . . . . . . . . . . . . . . . .
Guitar 1|---------------------------------------------------------------||---------------------------------------------------------------||---------------------------------------------------------------||---------------------------------------------------------------||----------------------------------------------------3h6--------||------------------------------------------------3h6-----4h5p4--||5h8-0-0-0-0-4h7-0-0-0-0-1h4-0-0-0-0-4h7-0-0-3h6----------------| . . . . . . . . . . . . . .
|-----------------------------------------------||-----------------------------------------------||-----------------------------------------------||-----------------------------------------------||-----------------------------------------------||-----------------------------------------------||5h8-0-0-0-0-4h7-0-0-0-0-1h4-0-0-0---0-0-0-0-0-0| . . . . . . . . . . . . . . . . .
Guitar 2|---------------------------------------------------------------------||---------------------------------------------------------------------||---------------------------------------------------------------------||---------------------------------------------------------7h10--------||----------------------------------------------------7h10------8h9p8--||9h12-0-0-0-0-8h11-0-0-0-0-5h8-0-0-0-0-8h11-0-0-7h10------------------| . . . . . . . . . . . . . .
|-------------------------------------------------||-------------------------------------------------||-------------------------------------------------||-------------------------------------------------||-------------------------------------------------||-------------------------------------------------||9h12-0-0-0-0-8h11-0-0-0-0-5h8-0-0-0---0-0-0-0-0-0| . . . . . . . . . . . . . . . . .
Breakdown!Guitar 1&24x|----------------------------------------------------------------||----------------------------------------------------------------||----------------------------------------------------------------||----------------------------------------------------------------||0-0--0-0--0-0----0-0-0-0-000--000--000----0-0-0-0-0--0-0-0-0-0-0||0-0--0-0--0-0----0-0-0-0-000--000--000----0-0-0-0-0--0-0-0-0-0-0| . . . . . . . . . . ... ... ... . . . . . . . . . . .
Play the next two measures 4xGuitar 1|---------------------------------------------------------------||---------------------------------------------------------------||---------------------------------------------------------------||---------------------------------------------------------------||--------------------------------8-----7-----5-----4-----5---4--||4h5-0-0-0-0-0-0-0-0-0-0-0-0-0-0---0-0---0-0---0-0---0-0---0---0| . . . . . . . . . . . . . . . . . . . . . . . .
|---------------------------------------------------------------||---------------------------------------------------------------||---------------------------------------------------------------||---------------------------------------------------------------||5---------------5---5---5---5---4---------------4---4---4---4--||--8-8-8-8-8-8-8---8---8---8---8---7-7-7-7-7-7-7---7---7---7---7| . . . . . . . . . . . . . . . . . . . . . .
Guitar 2Play the first two measures once...|-----------------------------------------------------------------||-----------------------------------------------------------------||-----------------------------------------------------------------||0~---------------------------------------------------------------||0~------------------------------12-----10-----8-----7-----8---7--||0~---------------------------------0-0----0-0---0-0---0-0---0---0| . . . . . . . . . .
|-----------------------------------------------------------------||-----------------------------------------------------------------||-----------------------------------------------------------------||-----------------------------------------------------------------||5~--------------------------------4~-----------------------------||8~--------------------------------7~-----------------------------|
Then play this 3x|-----------------------------------------------------------------||-----------------------------------------------------------------||-----------------------------------------------------------------||-----------------------------------------------------------------||--------------------------------12-----10-----8-----7-----8---7--||7h8-0-0-0-0-0-0-0-0-0-0-0-0-0-0----0-0----0-0---0-0---0-0---0---0| . . . . . . . . . . . . . . . . . . . . . . . .
|---------------------------------------------------------------------------||---------------------------------------------------------------------------||---------------------------------------------------------------------------||---------------------------------------------------------------------------||8---------------8---8---8---10---7----------------------7----7----7----7---||--8-8-8-8-8-8-8---8---8---8----8---11-11-11-11-11-11-11---11---11---11---11| . . . . . . . . . . . . . . . . . . . . . .
Guitar 1&2|-------------------------------------------------||-------------------------------------------------||-------------------------------------------------||-------------------------------------------------||------5-3-2-3------------------------------------||3t-2t-5-3-2-3-5h8-0-0-0-0-4h7-0-0-0-0-5h8-0-0-0-0| . . . . . . . . . . . . . . . .
|---------------------------||---------------------------||---------------------------||---------------------------||5h8-4h7-----5h8-4h7--------||--------0-0---------5h8-4h7| . .
|----------------------------------------------------||----------------------------------------------------||----------------------------------------------------||----------------------------------------------------||---------5-3-2-3------------------------------------||3t-5t-2t-5-3-2-3-5h8-0-0-0-0-4h7-0-0-0-0-5h8-0-0-0-0| . . . . . . . . . . . . . . . .
|---------------------------||---------------------------||---------------------------||---------------------------||5h8-4h7-----5h8-4h7--------||--------0-0---------5h8-4h7| . .
Do this one 3 times...|---------------------------------------------------------------||---------------------------------------------------------------||---------------------------------------------------------------||---------------------------------------------------------------||------------------------------------5h8-4h7-----5h8-4h7--------||5h8-0-0-0-0-4h7-0-0-0-0-5h8-0-0-0-0---------0-0---------5h8-4h7| . . . . . . . . . . . . . .
then...
Guitar 1|-------------------------------------------------------------||-------------------------------------------------------------||-------------------------------------------------------------||-------------------------------------------------------------||------------------------------------5h8-4h7-----8-7-5-7-5----||5h8-0-0-0-0-4h7-0-0-0-0-5h8-0-0-0-0---------0-0-----------8-7| . . . . . . . . . . . . . .
Guitar 2|-------------------------------------------------------------||-------------------------------------------------------------||-------------------------------------------------------------||------------------------------------------------7-5---5------||------------------------------------5h8-4h7---------8---8-7-5||5h8-0-0-0-0-4h7-0-0-0-0-5h8-0-0-0-0---------0-0--------------| . . . . . . . . . . . . . .
2xGuitar 1|---------------------------------------------------||---------------------------------------------------||---------------------------------------------------||8~------------------------0~-----------------------||8~---------7-7---8p7------0~-----------------------||8~-------8-----8-----8-10-0~-----------------------|
. .2x|---------------------------------------------------||---------------------------------------------------||---------------------------------------------------||8~---------5-5----7p5-----0~-----------------------||8~--------------------5-7-0~-----------------------||8~-------8-----8----------0~-----------------------|
. .4xGuitar 2|---------0~-----------------------0~---------------||6~----------------------------------------10~------||-----------------7~------10~-----------------------||---------------------------------------------------||---------------------------------------------------||---------------------------------------------------|
And the rest is just power chords, 8 and 0, it's easy to figure out, then a breakdown, no need to tab that out...and I might do the solo soon...
Tap to rate this tab
 
# A B C D E F G H I J K L M N O P Q R S T U V W X Y Z