Moby Dick – Krhinta tab

Moby Dick
Körhinta

gaftt@freemail.hu

g1 - Mentes Norbert
g2 - Smiedl Tamás


Intro

g11--------------|2--------------|3--------------|4--------------|5-1-0------3-2-|6------0-2-----|
g21--------------|2--------------|3--------------|4--------------|5-1-0------3-2-|6------0-2-----|
g11--------------------|2--------------------|3--------------------|4--------------------|5-2-3-2---2-3-2--5-3-|6-0-------0----------|
g21--------------------|2--------------------|3--------------------|4--------------------|5-2-3-2---2-3-2--5-3-|6-0-------0----------|
Verse
g11--------------------------|2--------------------------|3--------------------------|4--------------------------|5-2-2-3-2---2-----3-2--5-3-|6-0-0-1-0-0-0-0-0----------|
g21--------------------------|2--------------------------|3--------------------------|4--------------------------|5-2-2-3-2---2-----3-2--5-3-|6-0-0-1-0-0-0-0-0----------|
Pre-chorus
g11-------------------------|2-------------------------|3-------------------------|4---------4-4-------------|5-4--4--4-2-2-4---4--4--5-|6-2--2--2-----2---2--2--3-|
g21-------------------------|2-------------------------|3-------------------------|4---------4-4-------------|5-4--4--4-2-2-4---4--4--5-|6-2--2--2-----2---2--2--3-|
Chorus
g11--------------------------|2--------------------------|3--------------------------|4----9--9----7-----7--5--4-|5----7--7----5-----5--3--2-|6-0-------0-----0----------|
g21--------------------------|2--------------------------|3--------------------------|4----9--9----7-----7--5--4-|5----7--7----5-----5--3--2-|6-0-------0-----0----------|
Pre-solo
g11--------------------|2--------------------|3--------------------|4---4-4---4---4--7-7-|5---2-2---2---2--5-5-|6-0-----0---0--------|
g21--------------------|2--------------------|3--------------------|4--------------------|5-2--------------5-5-|6-0--------------3-3-|
Please rate this tab:
x1.0