Moe – Okayalright tab ver. 2

Okayalright Ā– Moe.
Tuning: eBGDAD (Drop Ā“DĀ” tuning)

    A#5
8 8 8 x x x
    A5
7 7 7 x x x
    G5
5 5 5 x x x
    C
X 3 5 5 5 3
    F5
3 3 3 x x x

Intro: Gtr I|---------3--------------------------||-----------3-----------------3------||---2/4--------4\2--0----------------||------------------------2/4---------||------------------------------------||------------------------------------|| Gtr II
|
|--------15--------------------------||-----------15------------------15---||--14/16-------16\14--12-------------||-------------------------14/16------||------------------------------------||------------------------------------|
Gtr I
|------------------------------------||------------------------------------||------------------------------------||----4/2--0------------8----7--------||----------------------8----7--------||----------------------8----7--------|| Gtr II
|
|------------------------------------||------------------------------------||------------------------------------||----16\14--12---------8----7--------||----------------------8----7--------||----------------------8----7--------|
Gtr I
|------------------------------------||------------------------5----5------||------------------------5----5------||-------(5)--------------5----5------||-------(5)--------------3----3------||-------(5)-------------3----3-------|| Gtr II
|
|------------------------------------||------------------------5----5------||------------------------5----5------||-------(5)--------------5----5------||-------(5)--------------3----3------||-------(5)-------------3----3-------|
Gtr I
|------------------------------------||------------------------------------||------------------------------------||------------------------------------||------2-5----2-5--1p0---------------||----5------4------------------------|
Verse:
|------------x-x-x--------x-x-x------||------------x-x-x--------x-x-x------||------------x-x-x--5--5--x-x-x------||--3--3------x-x-x--5--5--x-x-x------||--3--3------x-x-x--3--3--x-x-x------||--3--3------x-x-x--------x-x-x------|
| (both)|--------x-x-x-----------------------||--------x-x-x-----------------------||--------x-x-x-----------------------||--5--5--x-x-x-----------------------||--5--5--x-x-x-------2-5----2-5--1p0-||--5--5--x-x-x-----5------4----------|
And then at some point the second guitar does this...
|----------3--3----------------3--3--||----------3--3----------------3--3--||----------0--0-------5--5-----0--0--||--3--3---------------5--5-----------||--3--3---------------3--3-----------||--3--3------------------------------|
| | |
|---------3--3--------------------------||---------3--3--------------------------||---------0--0--------------------------||--5--5---------------------------------||--5--5--------------2-5----2-5--1p0----||--5--5------------5------4-------------|
Bridge:
|------------------------------------||------------------------------------||------------------------------------||------------------------------------||--------2----5----------2----5------||---5---------------4----------------|
|
|------------------------------------||----------------------5----5--------||----------------------5----5--------||----------------------5----5--------||---1--0---------------3----3--------||------------5-5-----3-----3---------|
Please rate this tab:
x1.0