Moneen - Dont Ever Tell Locke What He Cant Do tab

Intro Guitar 1 

|----------||----------||----------||----------||-22-222---||-00-000---|
|-12\1---||-12\1---||--------||--------||--------||--------|
|----------||----------||----------||----------||-22-222---||-00-000---|
|-12\1---||-12\1---||--------||--------||--------||--------|
|----------||----------||----------||----------||-22-222---||-00-000---|
|-12\1---||-12\1---||--------||--------||--------||--------|
|----------||----------||----------||----------||-22-222---||-00-000---|
|-12\1---||-12\1---||--------||--------||--------||--------|
Guitar 2
|----------||----------||----------||----------||-22-222---||-00-000---|
|-1/12---||-1/12---||--------||--------||--------||--------|
|----------||----------||----------||----------||-22-222---||-00-000---|
|-1/12---||-1/12---||--------||--------||--------||--------|
|----------||----------||----------||----------||-22-222---||-00-000---|
|-1/12---||-1/12---||--------||--------||--------||--------|
|----------||----------||----------||----------||-22-222---||-00-000---|
|-1/12---||-1/12---||--------||--------||--------||--------|
Verse Guitar 1
E|---------------------------|B|-17-16-15-12-13-12-13-10---|G|---------------------------| x2, repeat each noteD|---------------------------|A|---------------------------|E|---------------------------|
Guitar 2
E|---------------|B|---------------|G|---------------|D|-7-7-77-77-7---|A|-7-7-77-77-7---|E|-5-5-55-55-5---|
E|---------------|B|---------------|G|---------------|D|-2-2-22-22-2---|A|-2-2-22-22-2---|E|-0-0-00-00-0---|
E|---------------|B|---------------|G|---------------|D|-7-7-77-77-7---|A|-7-7-77-77-7---|E|-5-5-55-55-5---|
E|---------------|B|---------------|G|---------------|D|-2-2-22-22-2---|A|-2-2-22-22-2---|E|-0-0-00-00-0---|
Chorus Guitar 1
E|-----------------|B|-----------------|G|-----------------|D|-777-7-77-77-7---|A|-777-7-77-77-7---|E|-555-5-55-55-5---|
E|-----------------|B|-----------------|G|-----------------|D|-999-9-99-99-9---|A|-999-9-99-99-9---|E|-777-7-77-77-7---|
E|------------------------------|B|-17p16-17p16-12h13p12-12h13---|G|------------------------------| x16 D|------------------------------|A|------------------------------|E|------------------------------|
Guitar 2
|---------------------------||---------------------------||-14h15p14-15h16p15-13-14---||---------------------------||---------------------------||---------------------------|
|------------------------||-17-16-14-12/14-12/14---||------------------------||------------------------||------------------------||------------------------|
|---------------------------||-/19-18-17-16--------------||---------------------------||---------------------------||---------------------------||---------------------------|
|---------------------------||-21b-20-19-18--------------||---------------------------||---------------------------||---------------------------||---------------------------|
|------------------------||-17-16-14-12/14-12/14---||------------------------||------------------------||------------------------||------------------------|
|---------------------------||-/19-18-17-16--------------||---------------------------||---------------------------||---------------------------||---------------------------|
|---------------------------||-21b-20-19-18--------------||---------------------------||---------------------------||---------------------------||---------------------------|
Verse Guitar 1
E|---------------------------|B|-17-16-15-12-13-12-13-10---|G|---------------------------| x3, repeat each noteD|---------------------------|A|---------------------------|E|---------------------------|
E|---------------------------|B|-17-16-15-12-17-16-15-14---|G|---------------------------| x4, repeat each noteD|---------------------------|A|---------------------------|E|---------------------------|
Guitar 2
|----------||----------||----------||----------||-22-222---||-00-000---|
E|-------------------|B|-11-10-9-7-9-7-9---|G|-------------------| x2, repeat each noteD|-------------------|A|-------------------|E|-------------------|
|----------||----------||----------||----------||-22-222---||-00-000---|
E|-----------|B|-12-10-9---|G|-----------| repeat each noteD|-----------|A|-----------|E|-----------|
|----------||----------||----------||----------||-22-222---||-00-000---|
E|-----------------|B|-12-14-12-10-9---| G|-----------------| repeat each noteD|-----------------|A|-----------------|E|-----------------|
E|--------------|B|-12-11-10-9---| G|--------------| repeat each noteD|--------------|A|--------------|E|--------------|
E|---------------|B|-/17-15-12-9---|G|---------------| repeat each noteD|---------------|A|---------------|E|---------------|
Chorus Guitar 1
E|-----------------|B|-----------------|G|-----------------|D|-777-7-77-77-7---|A|-777-7-77-77-7---|E|-555-5-55-55-5---|
E|-----------------|B|-----------------|G|-----------------|D|-999-9-99-99-9---|A|-999-9-99-99-9---|E|-777-7-77-77-7---|
E|------------------------------|B|-17p16-17p16-12h13p12-12h13---|G|------------------------------| x16 D|------------------------------|A|------------------------------|E|------------------------------|
Guitar 2
|---------------------------||---------------------------||-14h15p14-15h16p15-13-14---||---------------------------||---------------------------||---------------------------|
|------------------------||-17-16-14-12/14-12/14---||------------------------||------------------------||------------------------||------------------------|
|---------------------------||-/19-18-17-16--------------||---------------------------||---------------------------||---------------------------||---------------------------|
|---------------------------||-21b-20-19-18--------------||---------------------------||---------------------------||---------------------------||---------------------------|
|------------------------||-17-16-14-12/14-12/14---||------------------------||------------------------||------------------------||------------------------|
|---------------------------||-/19-18-17-16--------------||---------------------------||---------------------------||---------------------------||---------------------------|
|---------------------------||-21b-20-19-18--------------||---------------------------||---------------------------||---------------------------||---------------------------|
Bridge Guitar 1
|----------||----------||----------||----------||-22-222---||-00-000---|
scrape, slide
|----------||----------||----------||----------||-22-222---||-00-000---|
E|----------------------------|B|----------------------------|G|-16p0-17p0-16p0-15p0-14p0---| x8D|----------------------------|A|----------------------------|E|----------------------------|
E|---------------12-11-10-9/12-12\---|B|-------10h11p10--------------------|G|-9h10p9----------------------------| x2D|-----------------------------------|A|-----------------------------------|E|-----------------------------------|
Guitar 2
|------------------------||--------12-15-14-13-11--||------------------------| x8, repeat each note|------------------------||-22-222-----------------||-00-000-----------------|
E|-------------|B|-------------|G|-------------| x2 D|-5555-7777---|A|-5555-7777---|E|-3333-5555---|
Chorus Guitar 1
E|--------------------|B|--------------------|G|-5555555555555555---|D|-xxxxxxxxxxxxxxxx---|A|-3333333333333333---|E|--------------------|
E|--------------------|B|--------------------|G|-7777777777777777---|D|-xxxxxxxxxxxxxxxx---|A|-5555555555555555---|E|--------------------|
E|------------------------------|B|-17p16-17p16-12h13p12-12h13---|G|------------------------------| x16 D|------------------------------|A|------------------------------|E|------------------------------|
Guitar 2
|---------------------------||---------------------------||-14h15p14-15h16p15-13-14---||---------------------------||---------------------------||---------------------------|
|------------------------||-17-16-14-12/14-12/14---||------------------------||------------------------||------------------------||------------------------|
|---------------------------||-/19-18-17-16--------------||---------------------------||---------------------------||---------------------------||---------------------------|
|---------------------------||-21b-20-19-18--------------||---------------------------||---------------------------||---------------------------||---------------------------|
|------------------------||-17-16-14-12/14-12/14---||------------------------||------------------------||------------------------||------------------------|
|---------------------------||-/19-18-17-16--------------||---------------------------||---------------------------||---------------------------||---------------------------|
|---------------------------||-21b-20-19-18--------------||---------------------------||---------------------------||---------------------------||---------------------------|
Tap to rate this tab
 
# A B C D E F G H I J K L M N O P Q R S T U V W X Y Z